Song name
# A B C D E F G H I J K L M N O P Q R S T U V W X Y Z

Misc Computer Games - Final Fantasy 8 - Fishermans Horizon tab

-------------------------------------------------------------------------------
			     Final Fantasy 8 - Fishermans Horizon Intro
-------------------------------------------------------------------------------
Tabbed by: mrlittle77	

Tuning: Standard EADgbe

e|---------------------------------------------6-6-6h8-6---------------------|
B|-4-4-6-6/8---------------------4-4-6-6/8---8-------------6-6h8---8-6-------|
G|-----------8-----8-10-8------------------8-------------8-------8-----8-----|
D|-------------8-9-------------------------------------------------------8---|
A|---------------------------------------------------------------------------|
E|---------------------------------------------------------------------------|

e|---------------------------------------------------------------------------|
B|-4-4-6-6/8-----------------------------------------------------------------|
G|-----------8---8-----------------------------------------------------------|
D|-------------9-------------------------------------------------------------|
A|---------------------------------------------------------------------------|
E|---------------------------------------------------------------------------|


| /  slide up
| \  slide down
| h  hammer-on
| p  pull-off
| ~  vibrato
| +  harmonic
| x  Mute note
===============================================================================

Tap to rate this tab
 
# A B C D E F G H I J K L M N O P Q R S T U V W X Y Z