Song name
# A B C D E F G H I J K L M N O P Q R S T U V W X Y Z

Misc Computer Games - Fire Emblem - A Knights Oath tab

I tried to make this a more metal version of it, not to mention making the transfer to 
it may not be entirely how you want it to sound but give it a chance

By the way I know, you don't have to tell me, I'm a complete nerd xD
(the pull offs/hammer ons are optional)

||VERSE||
-------------------------------------|
-------------------------------------|
-------------------------------------|
-------------------------------------|          x4
------10-------8--------7---------5--|
8p7h8-----8p7h8----8p7h8----8p7h8----|

||HARMONIZED VERSE||
Now, you can either play this part like this:

---------------------------------------|
---------------------------------------|
---------------------------------------|
-----10-------8------7------5----------| x4
-----10-------8------7------5----------|
8p7h8----8p7h8--8p7h8--8p7h8-----------|

or, if you have another person, you can play it as a guitar harmony like this:

Gtr 1:
------------------------------------|
------------------------------------|
------------------------------------|
------------------------------------| x4
-----10-------8-------7-------5-----|
8p7h8----8p7h8---8p7h8---8p7h8------|

Gtr 2:

---------------------------------|
---------------------------------|
---------------------------------|
-----10-------8-------7-------5--| x4
---------------------------------|
8p7h8----8p7h8---8p7h8---8p7h8---|

obviously the harmony will sound better but if you're alone then the power chords will work

||CHORUS||
--------------------------------------|
--------------------------------------|
--------------------------------------|
--------------------------------------| x2
7----7-7h8-----8-8h10-----10-10p8-----|
7----7-7h8-----8-8h10-----10-10p8-----|

--------------------------------------|
--------------------------------------|
--------------------------------------|
--------------------------------------|
7----7-7h8-----8-8h10---10-10h12------|
7----7-7h8-----8-8h10---10-10h12------|

Yes I even threw in a little mini solo thing, gotta hit the hammer ons pretty fast

-----------------------------------------------------|
-----------------------------------------------------|
-----------------------------------7---7----7*b------|
7h9h10-7h9h10-7h9h10-7h9h10--7-9-10--10--10----------|
-----------------------------------------------------|
-----------------------------------------------------|


if the timing is off then sorry I tabbed that part wrong but play what feels comfortable

Anyway you just alternate between the first part and last part until the song ends, I 
it alternates 2,3, or 4 times between verse and chorus for the total song length but I'm 
sure I don't exactly remember at the moment

So I hope you like it, its in Drop D just in case you didn't look at the top, and if the 
appear funny then its because this stupid comp is weird like that.

Bitch at me, correct, or thank me at r0ssw4rri0r@hotmail.com. And questions too, if you 
any.

Enjoy!
Tap to rate this tab
# A B C D E F G H I J K L M N O P Q R S T U V W X Y Z