Song name
# A B C D E F G H I J K L M N O P Q R S T U V W X Y Z

Misc Computer Games - Breath Of Fire - Town tab

-------------------------------------------------------------------------------
			     Town - Breath of Fire 02
-------------------------------------------------------------------------------
Video:
Tabbed by:Xaxu
Tuning:Standard
Source:Midi

There are a couple ways to play this. One, You can play with a solo guitar using
G2 when G1 doesn't play, mainly the intro. Or you can have two guitar playing. G1
playing melody and is on top. G2 playing rhythm and is on bottom. 


e|-----------------------------------------------------------|
B|-----------------------------------------------------------|
G|------Nothing is played on this part for G1----------------|
D|-----------------------------------------------------------|
A|-----------------------------------------------------------|
E|-----------------------------------------------------------|

e|------3---3-----0--5--0--5--0-----3---3-----0--5--0--5--0--|
B|----3---3---3-------------------3---3---3------------------|
G|--0-----------0---------------0-----------0----------------|
D|-----------------------------------------------------------|
A|-----------------------------------------------------------|
E|-----------------------------------------------------------|


e|------7---------------8-----5-----7---10-------------------|
B|-----------------------------------------------------------|
G|-----------------------------------------------------------|
D|-----------------------------------------------------------|
A|-----------------------------------------------------------|
E|-----------------------------------------------------------|

e|------3---3-----0--5--0--5--0-----3---3-----0--5--0--5--0--|
B|----3---3---3-------------------3---3---3------------------|
G|--0-----------0---------------0-----------0----------------|
D|-----------------------------------------------------------|
A|-----------------------------------------------------------|
E|-----------------------------------------------------------|


e|----10--9--10---15----10----5-----7---10---------------|
B|-------------------------------------------------------|
G|-------------------------------------------------------|
D|-------------------------------------------------------|
A|-------------------------------------------------------|
E|-------------------------------------------------------|

e|------3---3-----0--5--0--5--0-----3---3-------3---3----|
B|----3---3---3-------------------3---3---3---3---3---3--|
G|--0-----------0---------------0-----------0------------|
D|-------------------------------------------------------|
A|-------------------------------------------------------|
E|-------------------------------------------------------|


e|----12--10--8----5--7--8----10--12--14----14--15--7-------|
B|----------------------------------------------------------|
G|----------------------------------------------------------|
D|----------------------------------------------------------|
A|----------------------------------------------------------|
E|----------------------------------------------------------|

e|----0--3--0--3--0------2---2---------2---2-------3---3----|
B|--1---------------1--3---3---3--0--3---3---3---0---0---0--|
G|----------------------------------------------------------|
D|----------------------------------------------------------|
A|---------------------------------------------2------------|
E|----------------------------------------------------------|


e|-------8---------------7-----8--------5-----------6-----------|
B|--------------------------------------------------------------|
G|--------------------------------------------------------------|
D|--------------------------------------------------------------|
A|--------------------------------------------------------------|
E|--------------------------------------------------------------|

e|----0--5--0--5--0---0--5--0--5--0-----2---2-------2--5--8--5--|
B|------------------------------------3---3---3---3-------------|
G|--2---------------2---------------2-----------2---------------|
D|--------------------------------------------------------------|
A|--------------------------------------------------------------|
E|--------------------------------------------------------------|

Repeat till infinity


| /  slide up
| \  slide down
| h  hammer-on
| p  pull-off
| ~  vibrato
| +  harmonic
| x  Mute note
===============================================================================
Tap to rate this tab
# A B C D E F G H I J K L M N O P Q R S T U V W X Y Z