Song name
# A B C D E F G H I J K L M N O P Q R S T U V W X Y Z

Misc Computer Games - Legend Of Zelda Links Awakening - Cavern tab

-------------------------------------------------------------------------------
			    Cavern - Link's Awakening
-------------------------------------------------------------------------------
Video:
Tabbed by:Xaxu
Tuning:Standard
Source:Midi

e|-------------------------------------------------------|
B|-----------------------------------0---0---------------|
G|---------2---2--------1---1---------------------3---3--|
D|-------0---0--------0---0-----1--2---2-----1--2---2----|
A|--2--4---------2--4---------4------------4-------------|
E|-------------------------------------------------------|

e|---------0---0---------1---1---------11--10--9--8--7--|
B|-----------------------------0--2--3------------------|
G|----1--2---2---0--2--3---3----------------------------|
D|--4---------------------------------------------------|
A|------------------------------------------------------|
E|------------------------------------------------------|

e|-------------------------------------------------------|
B|-----------------------------------0---0---------------|
G|---------2---2--------1---1---------------------3---3--|
D|-------0---0--------0---0-----1--2---2-----1--2---2----|
A|--2--4---------2--4---------4------------4-------------|
E|-------------------------------------------------------|

e|---------0---0---------1---1---------11--10--9--8--7--|
B|-----------------------------0--2--3------------------|
G|----1--2---2---0--2--3---3----------------------------|
D|--4---------------------------------------------------|
A|------------------------------------------------------|
E|------------------------------------------------------|

Repeat till infinity

| /  slide up
| \  slide down
| h  hammer-on
| p  pull-off
| ~  vibrato
| +  harmonic
| x  Mute note
===============================================================================
Tap to rate this tab
# A B C D E F G H I J K L M N O P Q R S T U V W X Y Z