Song name
# A B C D E F G H I J K L M N O P Q R S T U V W X Y Z

Misc Computer Games - Legend Of Zelda Links Awakening - Animal Village tab

-------------------------------------------------------------------------------
			     Animal Village - Link's Awakening
-------------------------------------------------------------------------------
Video:
Tabbed by:Xaxu
Tuning:Standard
Source:Midi

Video for timing http://www.youtube.com/watch?v=lmmJDl2pDd0


e|-------------------2--3--------------------2--3----|
B|-----------0--1--3------3----------0--1--3------3--|
G|--0---0--2----------------0---0--2-----------------|
D|----0-----------------------0----------------------|
A|---------------------------------------------------|
E|---------------------------------------------------|

e|-----------0--1--3--7--8--3----------0--1--3--7--8--3--|
B|--1---1--3------------------1---1--3-------------------|
G|----0-------------------------0------------------------|
D|-------------------------------------------------------|
A|-------------------------------------------------------|
E|-------------------------------------------------------|

e|-------------------2--3--------------------2--3----|
B|-----------0--1--3------3----------0--1--3------3--|
G|--0---0--2----------------0---0--2-----------------|
D|----0-----------------------0----------------------|
A|---------------------------------------------------|
E|---------------------------------------------------|

e|-----------0--1--3--7--8--3----------0--1--3--7--8--3--|
B|--1---1--3------------------1---1--3-------------------|
G|----0-------------------------0------------------------|
D|-------------------------------------------------------|
A|-------------------------------------------------------|
E|-------------------------------------------------------|

Repeat till infinity

| /  slide up
| \  slide down
| h  hammer-on
| p  pull-off
| ~  vibrato
| +  harmonic
| x  Mute note
===============================================================================
Tap to rate this tab
# A B C D E F G H I J K L M N O P Q R S T U V W X Y Z