Song name
# A B C D E F G H I J K L M N O P Q R S T U V W X Y Z

Misc Computer Games - Earthbound - The Eight Melodies tab

Help us improve GuitareTab! Take a short survey!
-------------------------------------------------------------------------------
			     The Eight Melodies - Earthbound
-------------------------------------------------------------------------------
Tabbed by:Xaxu
Tuning:Standard


This is the combination of the Eight Melodies you learn in Earthbound.


e|-------------1--0----------0--1-------------------------|
B|---------1--------3---1--3------1-----------------------|
G|----0--2---0--------2---------------3--2-------------3--|
D|--3-------------------------------3------3---0--2--3----|
A|-------------------------------------------3------------|
E|--------------------------------------------------------|

e|-----------------------------------------------|
B|-------1---------------------------------------|
G|--2--3---2--0--2--3--0---3--2---0------2--0----|
D|-----------------------0----------2--3------3--|
A|------------------------------3----------------|
E|-----------------------------------------------|


| /  slide up
| \  slide down
| h  hammer-on
| p  pull-off
| ~  vibrato
| +  harmonic
| x  Mute note
===============================================================================
Related for Earthbound - The Eight Melodies tab