Song name
# A B C D E F G H I J K L M N O P Q R S T U V W X Y Z

Misc Computer Games - Breath Of Fire - Alan And Cerl tab

-------------------------------------------------------------------------------
	               Alan and Cerl - Breath of Fire 01
-------------------------------------------------------------------------------
Tabbed by:Xaxu
Tuning:Standard
Video:http://www.youtube.com/watch?v=RJ7DwbXX2pE
Composer:Yasuaki Fujita, Yoko Shimomura, Minae Fuji, and Mari Yamaguchi.

I took this from the Midi.

   
e|-------------------------------|
B|-------------------------------|
G|----0--4------4-----0-----4----|
D|--2------0--4-----2-----0---0--|
A|----------------3-----2--------|
E|-------------------------------|


e|----------------------------------------|
B|----------------------------------------|
G|------0--------0------------------------|
D|----2----2---0---0------2------1--4--1--|
A|--3--------2-------0--3---3--2----------|
E|----------------------------------------|

e|------------------------------|
B|------------------------------|
G|----0--4------4------2-----0--|
D|--2------1--4---0--3-----2----|
A|-----------------------3------|
E|------------------------------|

e|--------------------------------------|
B|--------------------------------------|
G|-------------------------0--4--0---0--|
D|-------2------1--4--1--2---------2----|
A|--0--3---3--2-------------------------|
E|--------------------------------------|

e|------------------------------------------------------------------|
B|------0------0-----------0----------------------------------------|
G|----0--------------0-------------0-------0------------------------|
D|--2-----0--4-----2-----0---0---2---2---0---0------2------1--4--1--|
A|---------------3-------------3---------------0--3---3--2----------|
E|---------------------3---------------3----------------------------|

e|---------------------------------------------------------0--------|
B|------0------0---------------------------------------0-------0----|
G|----0---------------2-----0------------------------0---0---0---0--|
D|--2-----1--4---0--3-----2--------2------1--4--1--2----------------|
A|----------------------3-----0--3---3--2---------------------------|
E|------------------------------------------------------------------|

e|------------------------------------------------------------------|
B|------0------0-----------0----------------------------------------|
G|----0--------------0-------------0-------0------------------------|
D|--2-----0--4-----2-----0---0---2---2---0---0------2------1--4--1--|
A|---------------3-------------3---------------0--3---3--2----------|
E|---------------------3---------------3----------------------------|

e|---------------------------------------------------------0--------|
B|------0------0---------------------------------------0-------0----|
G|----0---------------2-----0------------------------0---0---0---0--|
D|--2-----1--4---0--3-----2--------2------1--4--1--2----------------|
A|----------------------3-----0--3---3--2---------------------------|
E|------------------------------------------------------------------|

e|------------------------------------------------------------------|
B|------0------0-----------0----------------------------------------|
G|----0--------------0-------------0-------0------------------------|
D|--2-----0--4-----2-----0---0---2---2---0---0------2------1--4--1--|
A|---------------3-------------3---------------0--3---3--2----------|
E|---------------------3---------------3----------------------------|

e|---------------------------------------------------------0--------|
B|------0------0---------------------------------------0-------0----|
G|----0---------------2-----0------------------------0---0---0---0--|
D|--2-----1--4---0--3-----2--------2------1--4--1--2----------------|
A|----------------------3-----0--3---3--2---------------------------|
E|------------------------------------------------------------------|

e|------------------------------------------------------------------|
B|------0------0-----------0----------------------------------------|
G|----0--------------0-------------0-------0------------------------|
D|--2-----0--4-----2-----0---0---2---2---0---0------2------1--4--1--|
A|---------------3-------------3---------------0--3---3--2----------|
E|---------------------3---------------3----------------------------|

e|---------------------------------------------------------0--------|
B|------0------0---------------------------------------0-------0----|
G|----0---------------2-----0------------------------0---0---0---0--|
D|--2-----1--4---0--3-----2--------2------1--4--1--2----------------|
A|----------------------3-----0--3---3--2---------------------------|
E|------------------------------------------------------------------|

e|----------------------|
B|------0------0--------|
G|----0--------------0--|
D|--2-----0--4-----2----|
A|---------------3------|
E|----------------------|


| /  slide up
| \  slide down
| h  hammer-on
| p  pull-off
| ~  vibrato
| +  harmonic
| x  Mute note
===============================================================================
Tap to rate this tab
# A B C D E F G H I J K L M N O P Q R S T U V W X Y Z