Song name
# A B C D E F G H I J K L M N O P Q R S T U V W X Y Z

Misc Computer Games - Legend Of Zelda - Oath To Order tab

----------------------------------------------------------------------------
	 	      Oath of Order - Koji Kondo
                       Majora's Mask Soundtrack
----------------------------------------------------------------------------
Tabbed by: Martin Messner
Email: BigBonsai@hotmail.de

Tuning: E-Standard

Harp-Arpeggios:
e|--10-13-|-10-15-|-10-13-|-10-15-|-10-15-|----12-15-|
B|--10----|-11----|-10----|-11----|-11----|----14----|
G|--10----|-12----|-10----|-12----|-12----|----12----|
D|--12----|-12----|-12----|-12----|-12----|-11-14----|
A|--12----|-13----|-12----|-13----|-13----|-12-------|
E|--10----|-11----|-10----|-11----|-12----|----------|

e|-10-13-|-10-13-|-10-15-|-10-13-|-10-13-|-9--15-|-10-13-|-22~---|
B|-10----|-10----|-12----|-11----|-10----|-8-----|-10----|-------|
G|-10----|-10----|-12----|-10----|-10----|-9-----|-10----|-------|
D|-12----|-12----|-12----|-12----|-12----|-11----|-12----|-------|
A|-12----|-12----|-14----|-12----|-12----|-10----|-12----|-------|
E|-10----|-10----|-10----|-10----|-10----|-12----|-10----|-------|

So, you see: all of these "Chords" have 7 notes.
You wait for the 1st 1/8 note (which is played by bass and strings) and go on with the 
1/8 note up to the 8th one.


Strings:
e|---|----|---|----|-----|-1--0-|-1-|-5-|-3-|---|-1-|-1--0-|---|
B|-3-|----|-3-|----|-----|-2----|-3-|-6-|-3-|-3-|-3-|-2----|-3-|
G|-2-|-10-|-2-|-10-|(10)-|-2----|-2-|-5-|-4-|-3-|-2-|-2----|-2-|
D|-3-|-8--|-3-|-8--|(8)--|------|---|---|---|-3-|---|------|-3-|
A|---|-10-|---|-10-|(10)-|------|---|---|---|---|---|------|---|
E|---|----|---|----|-----|------|---|---|---|---|---|------|---|
This chords are situated on the 1st 1/8 note... in measure 6 and 12 is the chord only a 
note and the "e" is the other half of the measure.
All the chords except 6 and 12 are whole notes.

The harmony between the Arpeggios and the Strings ist hard to explain, so really listen 
the song or visit my MP3 Section on U.G.

Martin
Tap to rate this tab
# A B C D E F G H I J K L M N O P Q R S T U V W X Y Z