Song name
# A B C D E F G H I J K L M N O P Q R S T U V W X Y Z

Misc Computer Games - Earthbound - Credits tab

e|---1--3--5---5--8-3---3--5--1---1-5-3-1--5-8-7--7--8--8--------------------|
B|-1-------------------------------------------------------------------------|
G|---------------------------------------------------------------------------|
D|---------------------------------------------------------------------------|
A|---------------------------------------------------------------------------|
E|---------------------------------------------------------------------------|

e|-5-1--5--3--8-10-5--3--1-----1-----3---1----5----3--------1------1---------|
B|--------------------------3---------------------------------3--------------|
G|---------------------------------------------------------------------------|
D|---------------------------------------------------------------------------|
A|---------------------------------------------------------------------------|
E|---------------------------------------------------------------------------|

I think its a variation on Pollyanna.
Tap to rate this tab
 
# A B C D E F G H I J K L M N O P Q R S T U V W X Y Z