Song name
# A B C D E F G H I J K L M N O P Q R S T U V W X Y Z

Misc Computer Games - Mother 3 - Pig Army tab

e|---------------------------------------------|
B|---------------------------------------------|
G|---------------------------------------------|
D|-0-2-4-5--2-5-7-9--3-5-7-9--5-9-10-12--------|
A|---------------------------------------------|
E|---------------------------------------------|

e|---------------------------------------------|
B|---------------------------------------------|
G|---------------------------------------------|
D|-7-9-7-5-4-0-4--4-5-7-5-4--------------------|
A|---------------------------------------------|
E|---------------------------------------------|

e|---------------------------------------------|
B|---------------------------------------------|
G|---------------------------------------------|
D|-7-9-7-5-4-0-4--4-5-7-5-4--------------------|
A|---------------------------------------------|
E|---------------------------------------------|

e|---------------------------------------------|
B|---------------------------------------------|
G|-4/5-4-2-0---0---4---------------------------|
D|-----------4---4---2-------------------------|
A|---------------------------------------------|
E|---------------------------------------------|
Tap to rate this tab
 
# A B C D E F G H I J K L M N O P Q R S T U V W X Y Z