Song name
# A B C D E F G H I J K L M N O P Q R S T U V W X Y Z

Misc Computer Games - Battlefield Heroes Theme tab

Help us improve GuitareTab! Take a short survey!
e--------|-----0--------|------------------|------0--------|-------------------|
h--------|-1-1---1----1-|---1-----------0--|-1-1---1----1--|--3-1-----------0--|
G--0-2---|--------------|-3----2-0-3-0-2---|---------------|------3-2-0-0-2----|
D--------|--------------|------------------|---------------|-------------------| 
A--------|--------------|------------------|---------------|-------------------| 
E--------|--------------|------------------|---------------|-------------------|

e-----0--------|--1-0-----|--------------|----|
h-1-1---1----1-|------3---|-----------0--|-1--|
G--------------|--------3-|-0-0-2-0-2----|----|
D--------------|----------|--------------|----|
A--------------|----------|--------------|----|
E--------------|----------|--------------|----|
Related for Battlefield Heroes Theme tab