Song name
# A B C D E F G H I J K L M N O P Q R S T U V W X Y Z

Misc Computer Games - Doom E3m1 - Hell Keep tab

Standard Tuning

E-------------------------------------------|
B-------------------------------------------|
G-------------------------------------------|
D--------------------------------222--------|       X2
A--2-23-0-2------------2-23-0-2-------------|
E-0---------3-3-5-3---0---------3-----------|

E-------------------------------------------|
B-------------------------------------------|
G------------------------------222----------|
D--2-23-0-2-----------2-23-0-2--------------|         X2
A-0--------3-3-5-3---0--------3-------------|
E-------------------------------------------|

E-----------------------------------|
B-----------------------------------|
G-------------------------------444-|
D-----6-67-4-6--4-----4-45-2-4------|     X2
A----4--------77-7---2--------5-----|
E-----------------------------------|

Then just repeat the song as many times as you want
Tap to rate this tab
 
# A B C D E F G H I J K L M N O P Q R S T U V W X Y Z