Song name
# A B C D E F G H I J K L M N O P Q R S T U V W X Y Z

Misc Computer Games - Metal Gear Solid Theme Acoustic tab

this is the theme for the metal gear solid video games
 i transcribed it for solo acoustic guitar
(/)= slide
(=)= let ring
(^)= rasgueado (upstroke with one finger on each string)


e|-----|--------|--------|--------|7-5--------|----5-7-10===|-9-10-12--|
b|-7-5-|----5/7-|0-7-5===|--5-7---|----7---5--|--7----------|------9---|
g|-----|7==-----|--------|7-------|------7----|------4-7====|-9-11-9---|
d|-4==-|--------|--------|----4---|----9===7--|--4===-------|----------|
a|-----|5==-7/9-|--5-7===|5---5---|-----------|-------------|----------|
e|-----|--------|7-------|--------|7-5--------|-------------|----------|


e|-10----|---------|9--10-9-|-----|-----|-----|
b|-12-12-|---10-12-|--------|12===|10===|12===|
g|----11-|---------|--------|11===|9-===|11===|
d|----9--|---------|--------|9-===|11===|13===|
a|-------|---12-14-|--------|-----|-----|-----|
e|-------|---------|--------|-----|-----|-----|
                  Rit.......................
Tap to rate this tab
# A B C D E F G H I J K L M N O P Q R S T U V W X Y Z