Song name
# A B C D E F G H I J K L M N O P Q R S T U V W X Y Z

Misc Computer Games - Megaman - Tornadoman tab

-------------------------------------------------------------------------------
			                TORNADO MAN - Megaman 9
-------------------------------------------------------------------------------

Tabbed by: Jam5991

Tuning: Standard

=-=-=-=-=-=-=-=-=-=-=-=-=-=[ INTRO ]=-=-=-=-=-=-=-=-=-=-=-=-=-=

e|------------------------------|
B|------------------------------|
G|----------7-------------------|
D|-7--7--7/9--7--7-7-7-7\4-5/7--|
A|------------------------------|
E|------------------------------|

e|------------------------------|
B|------------------------------|
G|----------7--8-7-5-5h7p5------|
D|-7--7--7/9-------------7-5-7--|
A|------------------------------|
E|------------------------------|

e|------------------------------|
B|------------------------------|
G|----------7-------------------|
D|-7--7--7/9--7--7-7-7-7\4-5/7--|
A|------------------------------|
E|------------------------------|

e|------------------------------|
B|------------------------------|
G|----------7--8----------------|
D|-7--7--7/9--------------------|
A|------------------------------|
E|------------------------------|

=-=-=-=-=-=-=-=-=-=-=-=-=-=[ MAIN ]=-=-=-=-=-=-=-=-=-=-=-=-=-=

e|-12--10-8-7--8--7-5-3-5---12--10-8-7-8-10-7-12---10-12-13--10-7-----------|
B|--------------------------------------------------------------------------|
G|--------------------------------------------------------------------------|
D|--------------------------------------------------------------------------|
A|--------------------------------------------------------------------------|
E|--------------------------------------------------------------------------|

e|-15--17-15-13-15-13-12-10-12---10-8--7-8-5---5-7-8-13-12-10-8-------------|
B|--------------------------------------------------------------------------|
G|--------------------------------------------------------------------------|
D|--------------------------------------------------------------------------|
A|--------------------------------------------------------------------------|
E|--------------------------------------------------------------------------|

e|-12-12-14-15-16~----------------------------------------------------------|
B|--------------------------------------------------------------------------|
G|--------------------------------------------------------------------------|
D|--------------------------------------------------------------------------|
A|--------------------------------------------------------------------------|
E|--------------------------------------------------------------------------|

e|--------------------------------------------------------------------------|
B|-10--10-12-13-12-10-12-10-12-9--10----------------------------------------|
G|----------------------------------11--------------------------------------|
D|--------------------------------------------------------------------------|
A|--------------------------------------------------------------------------|
E|--------------------------------------------------------------------------|

e|--------------------------------------------------------------------------|
B|-10--10-12-13-15-10-12--9-10-12-13-10-9--9-12-10--------------------------|
G|--------------------------------------------------------------------------|
D|--------------------------------------------------------------------------|
A|--------------------------------------------------------------------------|
E|--------------------------------------------------------------------------|

e|-5-4-5-7-5-7-12---12-10-12-15-12-10-12~-----------------------------------|
B|--------------------------------------------------------------------------|
G|--------------------------------------------------------------------------|
D|--------------------------------------------------------------------------|
A|--------------------------------------------------------------------------|
E|--------------------------------------------------------------------------|

e|-5-4-5-7-5-7-12---12-10-12-15-12-15-17~-----------------------------------|
B|--------------------------------------------------------------------------|
G|--------------------------------------------------------------------------|
D|--------------------------------------------------------------------------|
A|--------------------------------------------------------------------------|
E|--------------------------------------------------------------------------|

=-=[REPEAT]=-=

| /  slide up
| \  slide down
| h  hammer-on
| p  pull-off
| ~  vibrato
===============================================================================
Tap to rate this tab
# A B C D E F G H I J K L M N O P Q R S T U V W X Y Z