Song name
# A B C D E F G H I J K L M N O P Q R S T U V W X Y Z

Misc Computer Games - Resident Evil 1 - Save Room tab

-------------------------------------------------------------------------------
			  Resident Evil 1 Save Room - 	Akari Kaida
                                                                         Makoto Tomozawa
                                                                         Masami Ueda

-------------------------------------------------------------------------------
Tabbed by: KJA
Email: kevin.armstrong1@virgin.net

Tuning: Standard. Capo 3rd Fret. Hold the chords and appregio.

e|-------------------------------------------------------------------------------|
B|----------------------------3-----------------------------------3--------------|
G|----------------------0----------0----------------------0-----------0----------|
D|----------------4---------------------------------4----------------------------|
A|---------2-----------------------------------2---------------------------------|
E|---0-----------------------------------0---------------------------------------|

e|-------------------------------------------------------------------------------|
B|----------------------------3-----------------------------------3--------------|
G|----------------------0----------0----------------------0-----------0----------|
D|----------------4---------------------------------4----------------------------|
A|---------2-----------------------------------2---------------------------------|
E|---0-----------------------------------0---------------------------------------|

e|-------------------------------3-----------------------------------3-----------|
B|---------------------0h-1----------1------------------0-h-1-----------1--------|
G|-------------------------------------------------------------------------------|
D|-------------3----------------------------------3------------------------------|
A|-------------------------------------------------------------------------------|
E|---1--------------------------------------1------------------------------------|

e|-------------------------------3-----------------------------------3------------|
B|---------------------0h-1----------1------------------0-h-1-----------1---------|
G|--------------------------------------------------------------------------------|
D|-------------3----------------------------------3-------------------------------|
A|--------------------------------------------------------------------------------|
E|---1--------------------------------------1-------------------------------------|

Repeat

| /  slide up
| \  slide down
| h  hammer-on
| p  pull-off
| ~  vibrato
| +  harmonic
| x  Mute note
===============================================================================
Tap to rate this tab
 
# A B C D E F G H I J K L M N O P Q R S T U V W X Y Z