Song name
# A B C D E F G H I J K L M N O P Q R S T U V W X Y Z

Misc Computer Games - Rollercoaster Tycoon 2 - Rock Style 2 tab

I first created this tab on Guitar Pro and export each instruments as a texted tab, 
includes Rhythm Guitar, Lead Guitar, Bass, and Drums individually.

This is the first RollerCoaster Tycoon (RTC) song I made which is from the 2nd 
Tycoon game.

RTC1 and RTC2 music were created by Allister Brimble.


Instruments Used in this Tab:

Rhythm Guitar
Lead Guitar
Bass
Drums

====================================================


                                 Rock style 2


                                                                Allister Brimble
                                                          RollerCoaster Tycoon 2
Rhythm Guitar

   Intro [Rhythm]
     Esus4     F#sus4              Asus4    Bsus4
     Q     E   E     Q    Q        Q    E   E    Q    Q
E||----------------------------|---------------------------|
B||----------------------------|---------------------------|
G||--2--------/4-----L---------|--/7-------/9----L---------|
D||--2--------/4-----L---------|--/7-------/9----L---------|
A||----------------------------|---------------------------|
E||----------------------------|---------------------------|


  A5      B5              D5      E5              Esus4     F#sus4
  Q    E  E  Q    Q       Q    E  E  Q    Q       Q     E   E     Q    Q
-----------------------|-----------------------|----------------------------|
-----------------------|-----------------------|----------------------------|
--2-------4--L---------|--7-------9--L---------|--2--------/4-----L---------|
--2-------4--L---------|--7-------9--L---------|--2--------/4-----L---------|
--0-------2--L---------|--5-------7--L---------|----------------------------|
-----------------------|-----------------------|----------------------------|


   Asus4    Bsus4             A5      B5              D5      E5
   Q    E   E    Q    Q       Q    E  E  Q    Q       Q    E  E  Q    Q
---------------------------|-----------------------|-----------------------|
---------------------------|-----------------------|-----------------------|
--/7-------/9----L---------|--2-------4--L---------|--7-------9--L---------|
--/7-------/9----L---------|--2-------4--L---------|--7-------9--L---------|
---------------------------|--0-------2--L---------|--5-------7--L---------|
---------------------------|-----------------------|-----------------------|


Pre-Verse [Rhythm]
  Esus4     F#sus4              Asus4    Bsus4
  Q     E   E     Q    Q        Q    E   E    Q    Q
----------------------------|---------------------------|
----------------------------|---------------------------|
--2--------/4-----L---------|--/7-------/9----L---------|
--2--------/4-----L---------|--/7-------/9----L---------|
----------------------------|---------------------------|
----------------------------|---------------------------|


                                                 Verse [Rhythm]
  A5      B5              D5      E5                Esus4     F#sus4
  Q    E  E  Q    Q       Q    E  E  Q    Q         Q     E   E     Q    Q
-----------------------|-----------------------||-----------------------------|
-----------------------|-----------------------||-----------------------------|
--2-------4--L---------|--7-------9--L---------||*--2--------/4-----L---------|
--2-------4--L---------|--7-------9--L---------||*--2--------/4-----L---------|
--0-------2--L---------|--5-------7--L---------||-----------------------------|
-----------------------|-----------------------||-----------------------------|


   Asus4    Bsus4             A5      B5              D5      E5
   Q    E   E    Q    Q       Q    E  E  Q    Q       Q    E  E  Q    Q
---------------------------|-----------------------|------------------------||
---------------------------|-----------------------|------------------------||
--/7-------/9----L---------|--2-------4--L---------|--7-------9--L---------*||
--/7-------/9----L---------|--2-------4--L---------|--7-------9--L---------*||
---------------------------|--0-------2--L---------|--5-------7--L----------||
---------------------------|-----------------------|------------------------||


Chorus [Rhythm]
  Esus4     F#sus4              Asus4    Bsus4
  Q     E   E     Q    Q        Q    E   E    Q    Q
----------------------------|---------------------------|
----------------------------|---------------------------|
--2--------/4-----L---------|--/7-------/9----L---------|
--2--------/4-----L---------|--/7-------/9----L---------|
----------------------------|---------------------------|
----------------------------|---------------------------|


  A5      B5              D5      E5              Esus4     F#sus4
  Q    E  E  Q    Q       Q    E  E  Q    Q       Q     E   E     Q    Q
-----------------------|-----------------------|----------------------------|
-----------------------|-----------------------|----------------------------|
--2-------4--L---------|--7-------9--L---------|--2--------/4-----L---------|
--2-------4--L---------|--7-------9--L---------|--2--------/4-----L---------|
--0-------2--L---------|--5-------7--L---------|----------------------------|
-----------------------|-----------------------|----------------------------|


   Asus4    Bsus4             A5      B5              D5      E5
   Q    E   E    Q    Q       Q    E  E  Q    Q       Q    E  E  Q    Q
---------------------------|-----------------------|-----------------------||
---------------------------|-----------------------|-----------------------||
--/7-------/9----L---------|--2-------4--L---------|--7-------9--L---------||
--/7-------/9----L---------|--2-------4--L---------|--7-------9--L---------||
---------------------------|--0-------2--L---------|--5-------7--L---------||
---------------------------|-----------------------|-----------------------||
                                Then skip back to the Verse again until here.

-------------------------------------------------------------------------------

Lead Guitar


Intro [Lead]
     W                   W                   W
E||-------------------|-------------------|-------------------|
B||-------------------|-------------------|-------------------|
G||-------------------|-------------------|-------------------|
D||-------------------|-------------------|-------------------|
A||-------------------|-------------------|-------------------|
E||-------------------|-------------------|-------------------|


  W                   W                   W                   W
-------------------|-------------------|-------------------|-------------------|
-------------------|-------------------|-------------------|-------------------|
-------------------|-------------------|-------------------|-------------------|
-------------------|-------------------|-------------------|-------------------|
-------------------|-------------------|-------------------|-------------------|
-------------------|-------------------|-------------------|-------------------|


                    Pre-Verse [Lead]
  W                   W                   W                   W
-------------------|-------------------|-------------------|-------------------|
-------------------|-------------------|-------------------|-------------------|
-------------------|-------------------|-------------------|-------------------|
-------------------|-------------------|-------------------|-------------------|
-------------------|-------------------|-------------------|-------------------|
-------------------|-------------------|-------------------|-------------------|


                     Verse [Lead]
  W                      S   S  S  S   S  S  S   S  S  S   S  S  S   S  S  S
-------------------||---12p-10p-8-12p-10p-8-12p-10p-8-12p-10p-8-12p-10p-8-12p-|
-------------------||---------------------------------------------------------|
-------------------||*--------------------------------------------------------|
-------------------||*--------------------------------------------------------|
-------------------||---------------------------------------------------------|
-------------------||---------------------------------------------------------|


   S  S  S   S  S  S   S  S  S   S  S  S   S  S  S   S
--10p-8-12p-10p-8-12p-10p-8-12p-10p-8-12p-10p-8-12p-10p-|
--------------------------------------------------------|
--------------------------------------------------------|
--------------------------------------------------------|
--------------------------------------------------------|
--------------------------------------------------------|


  S  S   S  S  S   S  S  S   S  S  S   S  S  S   S  S
--8-12p-10p-8-12p-10p-8-12p-10p-8-12p-10p-8-12p-10p-8-|
------------------------------------------------------|
------------------------------------------------------|
------------------------------------------------------|
------------------------------------------------------|
------------------------------------------------------|


                                                    Chorus [Lead]
   S   S  S  S   S  S  S   S  S  S   S  S   Q          H.             E   S S
--12p-10p-8-12p-10p-8-12p-10p-8-12p-10p-8---------||--------------------------|
------------------------------------------<>8-----||--10~-------------L--10---|
-------------------------------------------------*||------------------------9-|
-------------------------------------------------*||--------------------------|
--------------------------------------------------||--------------------------|
--------------------------------------------------||--------------------------|


   S S S S  E  E  E  E  E  E      Q     Q     E  E  E   E
------------------------------|----------------------------|
--10---8----------------8-----|--10----10----10--8---------|
-----9---7-----7--L--7-----7--|---------------------9------|
-----------10-----------------|------------------------10--|
------------------------------|----------------------------|
------------------------------|----------------------------|


  E  E  Q    E  E  E  E      H.            E   S S
-------------------------|-------------------------|
-------------------8-----|--10-------------L--10---|
-----7--7----L--7-----7--|-----------------------9-|
--L----------------------|-------------------------|
-------------------------|-------------------------|
-------------------------|-------------------------|


   S S S S  E  E  E  E  E  E      Q     Q     E  E  E   E
------------------------------|----------------------------|
--10---8----------------8-----|--10----12----10--8---------|
-----9---7-----7--L--7-----7--|---------------------9------|
-----------10-----------------|------------------------10--|
------------------------------|----------------------------|
------------------------------|----------------------------|


  E  E  Q    Q    Q
-----------------------||
-----------------------||
-----7--7----L---------||
--L--------------------||
-----------------------||
-----------------------||
Then skip back to the Verse again until here.

-------------------------------------------------------------------------------

Bass

   Intro [Bass]
     W                   W                   W
G||-------------------|-------------------|-------------------|
D||-------------------|-------------------|-------------------|
A||-------------------|-------------------|-------------------|
E||-------------------|-------------------|-------------------|


  W                   W                   W                   W
-------------------|-------------------|-------------------|-------------------|
-------------------|-------------------|-------------------|-------------------|
-------------------|-------------------|-------------------|-------------------|
-------------------|-------------------|-------------------|-------------------|


                    Pre-Verse [Bass]
  W                   Q    E  E  H           Q    E  E  H
-------------------|----------------------|----------------------|
-------------------|----------------------|----------------------|
-------------------|--0-------2--L--------|--5-------7--L--------|
-------------------|----------------------|----------------------|


                                               Verse [Bass]
  Q    E  E  H           Q    E  E  H             Q    E  E  H
----------------------|----------------------||-----------------------|
----------------------|----------------------||*----------------------|
--0-------2--L--------|--5-------7--L--------||*--0-------2--L--------|
----------------------|----------------------||-----------------------|


  Q    E  E  H           Q    E  E  H           Q    E  E  H
----------------------|----------------------|-----------------------||
----------------------|----------------------|----------------------*||
--5-------7--L--------|--0-------2--L--------|--5-------7--L--------*||
----------------------|----------------------|-----------------------||


Chorus [Bass]
  Q    E  E  H           Q    E  E  H           Q    E  E  H
----------------------|----------------------|----------------------|
----------------------|----------------------|----------------------|
--0-------2--L--------|--5-------7--L--------|--0-------2--L--------|
----------------------|----------------------|----------------------|


  Q    E  E  H           Q    E  E  H           Q    E  E  H
----------------------|----------------------|----------------------|
----------------------|----------------------|----------------------|
--5-------7--L--------|--0-------2--L--------|--5-------7--L--------|
----------------------|----------------------|----------------------|


  Q    E  E  H           Q    E  E  H
----------------------|----------------------||
----------------------|----------------------||
--0-------2--L--------|--5-------7--L--------||
----------------------|----------------------||
  Then skip back to the Verse again until here.


-------------------------------------------------------------------------------

Drums

Drum Pads
---------
36 - Bass Drum 1
38 - Acoustic Snare
42 - Closed Hi-Hat
43 - Hight Floor Tom
45 - Low Tom
46 - Opened Hi-Hat
47 - Low Mid Tom
49 - Crash Cymbal 1


   Intro [Drums]
      ^               ^   ^              ^               ^   ^       ^
      E   E   E   E   E   E   E   E      E   E   E   E   E   E   E   E
C||----------38--------------38------|----------38--------------38------|
C||--42--42--42--42--42--42--42--42--|--42--42--42--42--42--42--42--46--|
C||----------------------------------|----------------------------------|
C||----------------------------------|----------------------------------|
C||----------------------------------|----------------------------------|
C||--36--------------36--36----------|--36--------------36--36------36--|


   ^               ^   ^              ^               ^   ^       ^
   E   E   E   E   E   E   E   E      E   E   E   E   E   E   E   E
----------38--------------38------|----------38--------------38------|
--46--42--42--42--42--42--42--42--|--42--42--42--42--42--42--42--46--|
----------------------------------|----------------------------------|
----------------------------------|----------------------------------|
----------------------------------|----------------------------------|
--36--------------36--36----------|--36--------------36--36------36--|


   ^               ^   ^              ^               ^   ^       ^
   E   E   E   E   E   E   E   E      E   E   E   E   E   E   E   E
----------38--------------38------|----------38--------------38------|
--46--42--42--42--42--42--42--42--|--42--42--42--42--42--42--42--46--|
----------------------------------|----------------------------------|
--49------------------------------|----------------------------------|
----------------------------------|----------------------------------|
--36--------------36--36----------|--36--------------36--36------36--|


   ^               ^   ^              ^               ^   ^       ^
   E   E   E   E   E   E   E   E      E   E   E   E   E   E   E   S  S
----------38--------------38------|----------38--------------38--38-38-|
--46--42--42--42--42--42--42--42--|--42--42--42--42--42--42--42--46----|
----------------------------------|------47------47--45----------------|
----------------------------------|------------------------------------|
----------------------------------|----------------------43------------|
--36--------------36--36----------|--36--------------36--36------36----|


Pre-Verse [Drums]
   ^               ^   ^              ^               ^   ^       ^
   E   E   E   E   E   E   E   E      E   E   E   E   E   E   E   E
----------38--------------38------|----------38--------------38------|
--46--42--42--42--42--42--42--42--|--42--42--42--42--42--42--42--46--|
----------------------------------|----------------------------------|
--49------------------------------|----------------------------------|
----------------------------------|----------------------------------|
--36--------------36--36----------|--36--------------36--36------36--|


   ^               ^   ^              ^               ^   ^       ^
   E   E   E   E   E   E   E   E      E   E   E   E   E   E   E   E
----------38--------------38------|----------38--------------38------|
--46--42--42--42--42--42--42--42--|--42--42--42--42--42--42--42--46--|
----------------------------------|----------------------------------|
----------------------------------|----------------------------------|
----------------------------------|----------------------------------|
--36--------------36--36----------|--36--------------36--36------36--|


  Verse [Drums]
     ^               ^   ^              ^               ^   ^       ^
     E   E   E   E   E   E   E   E      E   E   E   E   E   E   E   E
||-----------38--------------38------|----------38--------------38------|
||---42--42--42--42--42--42--42--42--|--42--42--42--42--42--42--42--46--|
||*----------------------------------|----------------------------------|
||*--49------------------------------|----------------------------------|
||-----------------------------------|----------------------------------|
||---36--------------36--36----------|--36--------------36--36------36--|


   ^               ^   ^              ^               ^   ^       ^
   E   E   E   E   E   E   E   E      E   E   E   E   E   E   E   S  S
----------38--------------38------|----------38--------------38--38-38--||
--46--42--42--42--42--42--42--42--|--42--42--42--42--42--42--42--46-----||
----------------------------------|------47------47--45----------------*||
----------------------------------|------------------------------------*||
----------------------------------|----------------------43-------------||
--36--------------36--36----------|--36--------------36--36------36-----||


Chorus [Drums]
   ^               ^   ^              ^               ^   ^       ^
   E   E   E   E   E   E   E   E      E   E   E   E   E   E   E   E
----------38--------------38------|----------38--------------38------|
--46--42--42--42--42--42--42--42--|--42--42--42--42--42--42--42--46--|
----------------------------------|----------------------------------|
--49------------------------------|----------------------------------|
----------------------------------|----------------------------------|
--36--------------36--36----------|--36--------------36--36------36--|


   ^               ^   ^              ^               ^   ^       ^
   E   E   E   E   E   E   E   E      E   E   E   E   E   E   E   S  S
----------38--------------38------|----------38--------------38--38-38-|
--46--42--42--42--42--42--42--42--|--42--42--42--42--42--42--42--46----|
----------------------------------|------47------47--45----------------|
----------------------------------|------------------------------------|
----------------------------------|----------------------43------------|
--36--------------36--36----------|--36--------------36--36------36----|


   ^               ^   ^              ^               ^   ^       ^
   E   E   E   E   E   E   E   E      E   E   E   E   E   E   E   E
----------38--------------38------|----------38--------------38------|
--46--42--42--42--42--42--42--42--|--42--42--42--42--42--42--42--46--|
----------------------------------|----------------------------------|
--49------------------------------|----------------------------------|
----------------------------------|----------------------------------|
--36--------------36--36----------|--36--------------36--36------36--|


   ^               ^   ^              ^               ^   ^       ^
   E   E   E   E   E   E   E   E      E   E   E   E   E   E   E   S  S
----------38--------------38------|----------38--------------38--38-38-||
--46--42--42--42--42--42--42--42--|--42--42--42--42--42--42--42--46----||
----------------------------------|------47------47--45----------------||
----------------------------------|------------------------------------||
----------------------------------|----------------------43------------||
--36--------------36--36----------|--36--------------36--36------36----||
                            Then skip back to the Verse until here again.


Duration Legend
---------------
W - whole
H - half
Q - quarter
E - 8th
S - 16th
T - 32nd
X - 64th
. - note dotted
|-n-|  - n-tuplets


Tablature Legend
----------------
L - tied note
x - dead note
g - grace note
(n) - ghost note
> - accentuded note
NH - natural harmonic
AH - artificial harmonic
TH - tapped harmonic
SH - semi harmonic
PH - pitch harmonic
h - hammer on
p - pull off
b - bend
br - bendRelease
pb - preBend
pbr - preBendRelease
brb - bendReleaseBend
\n/ - tremolo bar dip
\n - tremolo bar dive
-/n - tremolo bar Release up
/n\ - tremolo bar inverted dip
/n - tremolo bar return
-\n - tremolo bar Release down
S - shift slide
s - legato slide
/ -  slide into from below or out of upwards
\ -  slide into from above or out of downwards
~ - vibrato
W - wide vibrato
tr - trill
TP - tremolo picking
T - tapping
S - slap
P - pop
< - fade in
^ - brush up
v - brush down
Tap to rate this tab
 
# A B C D E F G H I J K L M N O P Q R S T U V W X Y Z