Song name
# A B C D E F G H I J K L M N O P Q R S T U V W X Y Z

Misc Computer Games - Jampack Volume 2 Theme tab

                                       Jampack Volume2 Theme
                                     Tabbed By: killerscorpion
                                          Standard Tuning

Intro/Chorus
E|-----------------------------------------------------------------|
B|-----------------------------------------------------------------|
G|-----------------------------------------------------------------|
D|-----------------------------------------------------------------|
A|-0-0-0-00-00-000-0-0-0-00-00-000-1-1-1-11-11-111-1-1-1-11-11-111-|
e|-----------------------------------------------------------------|
Theres some kind of lead playing over this but im not sure how it goes.

Verse
E|-------------------------------|
B|-------------------------------|
G|-222----222----222----2--2--22-|
D|-222-2--222-2--222-2--2--2--22-|
A|-000-2--000-2--000-2--00000000-|
e|-----0------0------0-----------|x2

Interlude
E|-----------------------------|
B|-----------------------------|
G|---2-2-2-0--2-2-2-0--2-2-2-0-|
D|---2-2-2-0--2-2-2-0--2-2-2-0-|
A|-0---------------------------|
e|-----------------------------|
After that theres a short keyboard solo and then it goes back into the chorus.
Tap to rate this tab
 
# A B C D E F G H I J K L M N O P Q R S T U V W X Y Z