Song name
# A B C D E F G H I J K L M N O P Q R S T U V W X Y Z

Misc Computer Games - Batman 2 Theme tab

Should be played an octave higher sometimes but these are the notes with timing and rhythm.

|--------|--------|--------|--------|
|--------|--------|--------|--------|
|--------|--------|--------|--------|
|----0---|--32--0-|----0---|-1113-4-|
|--1-----|1----3--|--1-----|--------|
|-3-3-3-3|-3------|-3-3-3-3|--------|

|--6--5--|6--5----|--6--5--|6--5--1-|
|--8--6--|8--6----|--8--6--|8--6--1-|
|--------|--------|--------|--------|
|--------|--------|--------|--------|
|--------|--------|--------|--------|
|--------|--------|--------|--------|

|--6--5--|6--5----|--6--5--|6--8 --5-|
|--8--6--|8--6----|--8--6--|8--10--6-|
|--------|--------|--------|---- ----|
|--------|--------|--------|---- ----|
|--------|--------|--------|---- ----|
|--------|--------|--------|---- ----|

|--------|--------|--------|--------|
|--------|--------|--------|--------|
|--------|----5---|--------|--------|
|5-78----|--78-875|7--8--7-|--------|
|-5------|-5------|--------|8-------|
|--------|--------|--------|--------|

|--------|--------|--------|--------|
|--------|--------|--------|--------|
|--------|--------|--------|----75--|
|--------|-5------|--------|---7--67|
|6-----8-|---8--6-|5-------|-59-----|
|-----6-6|--------|--------|--------|

|--------|--------|--------|--------|
|--------|--------|--------|--------|
|--------|--------|5-------|--------|
|5-78----|--578758|---8--7-|--------|
|-5------|-5------|--------|8-------|
|--------|--------|--------|----8---|

|------- -|-------- |------- - |---- - - - - |
|------- -|-------- |------- - |---- - - - - |
|------- -|-------- |------- - |---- - - - - |
|------- -|--8-78-10|-----81012|---1212121212|
|--6-8-10-|-------- |------- - |---- - - - - |
|-6-6-6- 6|66------ |------- - |---- - - - - |

                   (3)			    (3)
|--- --- --|- ---         |--- --- --|- ---         |
|--- --- --|- ---         |--- --- --|- ---         |
|--12--- --|- ---         |--12--- --|- ---         |
|--12--12--|11---11 11 11 |--12--12--|11---11 11 11 |
|--- --12--|11---11 11 11 |--- --12--|11---11 11 11 |
|--- --- --|- ---         |--- --- --|- ---         |

|--- --- --|- -------|--- --- --|- -------|
|--- --- --|- -------|--- --- --|- -------|
|--- --- --|- -------|--- --- --|- -------|
|--12--12--|13-------|--12--12--|13-------|
|--12--12--|13-------|--12--12--|13-------|
|--- --- --|- -------|--- --- --|- -------|

|- - - - - - - - |- - - - - - - - |
|- - - - - - - - |- - - - - - - - |
|- - - - - - - - |- - - - - - - - |
|- 12- 12- 12- 12|- - - - - - 12- |
|- - 13- 12- 10- |- - - - 12- - - |
|- - - - - - - - |10101410- 10- 10|

Tap to rate this tab
 
# A B C D E F G H I J K L M N O P Q R S T U V W X Y Z