Song name
# A B C D E F G H I J K L M N O P Q R S T U V W X Y Z

Misc Computer Games - Farmville Theme tab

-------------------------------------------------------------------------------
                          Farmville Theme Song 
-------------------------------------------------------------------------------
Tabbed by: Tyler Lyssy (a.k.a T$)
Email:     teemohnay@yahoo.com

Tuning: Standard EBGDAE

e|---------------------------------------------------------------------------|
B|--8/10--13--9h10~--10\8------8~----------8/10--6--6~-----------------------|
G|-------------------------10------10--10------------------------------------|
D|---------------------------------------------------------------------------|
A|---------------------------------------------------------------------------|
E|---------------------------------------------------------------------------|

e|---------------------------------------------5--1--4~----------------------|
B|----------6-----8/10\8--6--------------3-----------------------------------|
G|--5--6h7-----7-------------6--5~--3/4-----4--------------------------------|
D|---------------------------------------------------------------------------|
A|---------------------------------------------------------------------------|
E|---------------------------------------------------------------------------|

e|--12--12--10--8--12/13--5--8~----------------------------------------------|
B|----------------------------------------6-----8/9\8--6-----6~--------------|
G|-------------------------------5--6--7-----7------------7------------------|
D|---------------------------------------------------------------------------|
A|---------------------------------------------------------------------------|
E|---------------------------------------------------------------------------|

e|-----------10--8--8/9----------------8--10---------------------------------|
B|--6--5--4--------------11--8--9--10---------10\8--7--8--10--8--------------|
G|---------------------------------------------------------------7~----------|
D|---------------------------------------------------------------------------|
A|---------------------------------------------------------------------------|
E|---------------------------------------------------------------------------|

                                

| /  slide up
| \  slide down
| h  hammer-on
| p  pull-off
| ~  vibrato
| +  harmonic
| x  Mute note
===============================================================================
Tap to rate this tab
# A B C D E F G H I J K L M N O P Q R S T U V W X Y Z