Song name
# A B C D E F G H I J K L M N O P Q R S T U V W X Y Z

Misc Computer Games - Monster Hunter Theme tab

a shout out to
 jj2j from youtube who figured out the main part
this is my first try at tabbing as well

and this tab is a fan based piece of media and in no way do i take responsibilities and 
viewing and learning these tabs any responsibilities are passed onto you

part one, the main theme
E----------------------------------------------------------------------------|I
B------------------------------10-----8--------------------------------------|I
G----------------------------------------10--9-----10~----10--7-9-10~-9-7-9--|I
D-7---7--9--------7--9--7----------------------------------------------------|I
A---7----------7-----------7-------------------------------------------------|I
E----------------------------------------------------------------------------|I

E----------------------------------------------------------------12--10------|~~~-I
B-------------------------------------------8-10-11---10-11-13---------------|I
G---------------7---7--9------7--9--7----------------------------------------|I
D10---9~~~~-------7---------7----------7-------------------------------------|I
A----------------------------------------------------------------------------|I
E----------------------------------------------------------------------------|I

part 2, bridge (the bit on the violins i think)
E----------------------------------------------------------------------------|I
B----------------------------------------------------------------------------|I
G----------------------------------------------------------------------------|I
D9--10^--10-9---9--7--7------------------------------------------------------|I
A-------------9--------------------------------------------------------------|I
E----------------------------------------------------------------------------|I
   only bind up the tiniest bit at the bends


i will tab out the rest as i figure it it
Tap to rate this tab
 
# A B C D E F G H I J K L M N O P Q R S T U V W X Y Z