Song name
# A B C D E F G H I J K L M N O P Q R S T U V W X Y Z

Misc Computer Games - Shin Megami Tensei Persona 3 - Mass Destruction tab

~MasS Destruction~
by Shoji Meguro
tabbed out by kwizzeh aka Nanaya
black_mage6 [at] hotmail [dot] com

From
- Persona 3: Original Soundtrack (Original)
- PERSONA Music Live ~ Velvetroom in Akasaka Blitz DVD (LIVE)

Some extra things to know is that there are TWO guitars in this song. One in STANDARD 
one in another tuning. This is more obvious on PERSONA Music Live with Meguro playing in 
right channel and someone else playing in the left.
Another thing is, I'm not really sure about the chorus, but the way I do it, it sounds 
enough when played along with PERSONA Music Live DVD.

The song itself is really simple itself, it's just knowing when to mute the strings.

Standard tuning.

Intro / Main Riff

  G#5
e|---------------------------------------|
B|---------------------------------------|
G|-----xx-xx-------xx-xx-----------------|
D|6-66-xx-xx--6-66-xx-xx--6--------------|
A|6-66-xx-xx--6-66-xx-xx--6--------------|
E|4-44-xx-xx--4-44-xx-xx--4--------------|

Pre-Verse

  G#5
e|------------------------------|
B|------------------------------|
G|-x---x---x---x----------------| Directly into A5
D|6x--6x--6x--6x----------------|
A|6x--6x--6x--6x----------------|
E|4x--4x--4x--4x----------------|

Verse

Follows the same rhythm as the intro

  A5
e|---------------------------------------|
B|---------------------------------------|
G|-----xx-xx-------xx-xx-----------------|
D|7-77-xx-xx--7-77-xx-xx--7--------------|
A|7-77-xx-xx--7-77-xx-xx--7--------------|
E|5-55-xx-xx--5-55-xx-xx--5--------------|

  F#5
e|---------------------------------------|
B|---------------------------------------|
G|-----xx-xx-------xx-xx-----------------|
D|4-44-xx-xx--4-44-xx-xx--4--------------|
A|4-44-xx-xx--4-44-xx-xx--4--------------|
E|2-22-xx-xx--2-22-xx-xx--2--------------|

  G#5
e|-----------------------------------------------------|
B|-----------------------------------------------------|
G|-----xx-xx-------xx-xx-------------------------------|
D|6-66-xx-xx--6-66-xx-xx--6--then back to A5-----------|
A|6-66-xx-xx--6-66-xx-xx--6----------------------------|
E|4-44-xx-xx--4-44-xx-xx--4----------------------------|

On final repeat, end with a G#5 stroke before the drum fill.

Chorus

    G#5 A#5 B5 A#5
e|----------------|
B|----------------|
G|----------------| On final repeat, go back to main riff.
D|--6--8---9--8---|
A|--6--8---9--8---|
E|3/4--6---7--6---|

Structure:
(Sampled section, 1x)
Intro (5x)
Pre-Verse (2x)
Verse (7x)
Chorus (8x)
Intro (5x)
Pre-verse (2x)
Verse (7x)
Chorus (8x)
(Sampled section, 1x)
End with G#5

Pretty easy stuff considering there's an alto sax, a lot of sampled sounds and a dude 
in the background. Corrections are welcome!

| /  slide up
| \  slide down
| h  hammer-on
| p  pull-off
| ~  vibrato
| +  harmonic
| x  Mute note
Tap to rate this tab
 
# A B C D E F G H I J K L M N O P Q R S T U V W X Y Z