Song name
# A B C D E F G H I J K L M N O P Q R S T U V W X Y Z

Misc Computer Games - Stunts - Main Menu Theme tab

-------------------------------------------------------------------------------
			     Stunts Theme for PC/Windows/Dos
-------------------------------------------------------------------------------
Game: Stunts
Song: Main Theme
Platform: PC/Windows/Dos

Tabbed by: deathx88
Email: deathx88@yahoo.com

Tuning: Standard




Guitar 1


     S S S E  S S S S S S E  S S S    S S S E  S S S S S S S S S S S  
E||--------------------------------|---------------------------------|
B||--------------------------------|-------------------3---3---3---3-|
G||--2-2-4-4--4-4-4-2-2-4-4--4-4-4-|--2-2-4-4--4-4-4---2---2---2---2-|
D||--2-2-4-4--4-4-4-2-2-4-4--4-4-4-|--2-2-4-4--4-4-4-----------------|
A||--------------------------------|---------------------------------|
E||--------------------------------|---------------------------------|


  S S S E  S S S S S S E  S S S    S S S E  S S S S S S S S S S S  
--------------------------------|---------------------------------|
--------------------------------|-------------------3-----3---3---|
--2-2-4-4--4-4-4-2-2-4-4--4-4-4-|--2-2-4-4--4-4-4---2-4-2-2-4-2-4-|
--2-2-4-4--4-4-4-2-2-4-4--4-4-4-|--2-2-4-4--4-4-4-----4-2---4---4-|
--------------------------------|---------------------------------|
--------------------------------|---------------------------------|


  E  S S S S S S E  S S S S S S    E  S S S S S S S S S S S S S S  
--------------------------------|---------------------------------|
----------------------3---3-----|---------------------------------|
--4----2---2---2-4----2---2---2-|---------------------2---4---2---|
--4----2---2---2-4------------2-|--4----2---2---2-4-2-2-4-4-4-2-4-|
--------------------------------|--4----2---2---2-4-2---4---4---4-|
--------------------------------|---------------------------------|


  E  S S S S S S E  S S S S S S    E  S S S S S S S S S S S S S S  
--------------------------------|---------------------------------|
----------------------3---3-----|---------------------------------|
--4----2---2---2-4----2---2---2-|-----------------4-2---4-2---4-2-|
--4----2---2---2-4------------2-|--4----2---2---4-4-2-4-4-2-4-4-2-|
--------------------------------|--4----2---2---4-----4-----4-----|
--------------------------------|---------------------------------|


  E  S S S S S S E  S S S S S S    E  S S S S S S S S S S S S S S  
--------------------------------|---------------------------------|
----------------------3---3-----|---------------------------------|
--4----2---2---2-4----2---2---2-|---------------------2---4---2---|
--4----2---2---2-4------------2-|--4----2---2---2-4-2-2-4-4-4-2-4-|
--------------------------------|--4----2---2---2-4-2---4---4---4-|
--------------------------------|---------------------------------|


  E  S S S S S S E  S S S S S S    S S S S S S S S S S S S S S S S  
--------------------------------|----------------------------2---2-|
----------------------3---3-----|----5-3---5-3---5-3---3-----2---2-|
--4----2---2---2-4----2---2---4-|----4-2-4-4-2-4-4-2-4-2-4-2---2---|
--4----2---2---2-4------------4-|--------4-----4-----4---4-2---2---|
--------------------------------|----------------------------------|
--------------------------------|----------------------------------|


  S S S E  S S S S S S E  S S S    S S S E  S S S S S S S S S S S  
--------------------------------|---------------------------------|
--------------------------------|-------------------2---3---3---3-|
--2-2-4-4--4-4-4-2-2-4-4--4-4-4-|--2-2-4-4--4-4-4---1---2---2---2-|
--2-2-4-4--4-4-4-2-2-4-4--4-4-4-|--2-2-4-4--4-4-4-----------------|
--------------------------------|---------------------------------|
--------------------------------|---------------------------------|


  S S S E  S S S S S S E  S S S    S S S E  S S S S S S S S S S S  
--------------------------------|---------------------------------|
--------------------------------|-------------------3---5---5---5-|
--2-2-4-4--4-4-4-2-2-4-4--4-4-4-|--2-2-4-4--4-4-4---2---4---4---4-|
--2-2-4-4--4-4-4-2-2-4-4--4-4-4-|--2-2-4-4--4-4-4-----------------|
--------------------------------|---------------------------------|
--------------------------------|---------------------------------|


  E  S S S S S S E  S S S S S S    E  S S S S S S S S S S S S S S  
--------------------------------|---------------------------------|
----------------------3---3-----|---------------------------------|
--4----2---2---2-4----2---2---2-|---------------------2---4---2---|
--4----2---2---2-4------------2-|--4----2---2---2-4-2-2-4-4-4-2-4-|
--------------------------------|--4----2---2---2-4-2---4---4---4-|
--------------------------------|---------------------------------|


  E  S S S S S S E  S S S S S S    E  S S S S S S S S S S S S S S  
--------------------------------|---------------------------------|
----------------------3---3-----|---------------------------------|
--4----2---2---2-4----2---2---2-|-----------------4-2---4-2---4-2-|
--4----2---2---2-4------------2-|--4----2---2---4-4-2-4-4-2-4-4-2-|
--------------------------------|--4----2---2---4-----4-----4-----|
--------------------------------|---------------------------------|


  E  S S S S S S E  S S S S S S    E  S S S S S S S S S S S S S S  
--------------------------------|---------------------------------|
----------------------3---3-----|---------------------------------|
--4----2---2---2-4----2---2---2-|---------------------2---4---2---|
--4----2---2---2-4------------2-|--4----2---2---2-4-2-2-4-4-4-2-4-|
--------------------------------|--4----2---2---2-4-2---4---4---4-|
--------------------------------|---------------------------------|


  E  S S S S S S E  S S S S S S    S S S S S S S S S S S S S S S S  
--------------------------------|----------------------------2---2-|
----------------------3---3-----|----5-3---5-3---5-3---3-----2---2-|
--4----2---2---2-4----2---2---4-|----4-2-4-4-2-4-4-2-4-2-4-2---2---|
--4----2---2---2-4------------4-|--------4-----4-----4---4-2---2---|
--------------------------------|----------------------------------|
--------------------------------|----------------------------------|




Guitar 2


     S S S E  S S S S S S E  S S S    S S S E  S S S S S S S S S S S  
E||--------------------------------|---------------------------------|
B||--------------------------------|---------------------------------|
G||--------------------------------|-------------------2---2---2---2-|
D||--2-2-4-4--4-4-4-2-2-4-4--4-4-4-|--2-2-4-4--4-4-4---0---0---0---0-|
A||--0-0-2-2--2-2-2-0-0-2-2--2-2-2-|--0-0-2-2--2-2-2-----------------|
E||--------------------------------|---------------------------------|


  S S S E  S S S S S S E  S S S    S S S E  S S S S S S S S S S S  
--------------------------------|---------------------------------|
--------------------------------|---------------------------------|
--------------------------------|-------------------2-----2---2---|
--2-2-4-4--4-4-4-2-2-4-4--4-4-4-|--2-2-4-4--4-4-4---0-4-2-0-4-0-4-|
--0-0-2-2--2-2-2-0-0-2-2--2-2-2-|--0-0-2-2--2-2-2-----2-0---2---2-|
--------------------------------|---------------------------------|


  E  S S S S S S E  S S S S S S    E  S S S S S S S S S S S S S S  
--------------------------------|---------------------------------|
--------------------------------|---------------------------------|
----------------------2---2-----|---------------------------------|
--4----2---2---2-4----0---0---2-|---------------------2---4---2---|
--2----0---0---0-2------------0-|--4----2---2---2-4-2-0-4-2-4-0-4-|
--------------------------------|--2----0---0---0-2-0---2---2---2-|


  E  S S S S S S E  S S S S S S    E  S S S S S S S S S S S S S S  
--------------------------------|---------------------------------|
--------------------------------|---------------------------------|
----------------------2---2-----|---------------------------------|
--4----2---2---2-4----0---0---2-|-----------------4-2---4-2---4-2-|
--2----0---0---0-2------------0-|--4----2---2---4-2-0-4-2-0-4-2-0-|
--------------------------------|--2----0---0---2-----2-----2-----|


  E  S S S S S S E  S S S S S S    E  S S S S S S S S S S S S S S  
--------------------------------|---------------------------------|
--------------------------------|---------------------------------|
----------------------2---2-----|---------------------------------|
--4----2---2---2-4----0---0---2-|---------------------2---4---2---|
--2----0---0---0-2------------0-|--4----2---2---2-4-2-0-4-2-4-0-4-|
--------------------------------|--2----0---0---0-2-0---2---2---2-|


  E  S S S S S S E  S S S S S S    S S S S S S S S S S S S S S S S  
--------------------------------|----------------------------------|
--------------------------------|----------------------------------|
----------------------2---2-----|----4-2---4-2---4-2---2-----6---6-|
--4----2---2---2-4----0---0---4-|----2-0-4-2-0-4-2-0-4-0-4-2-4-2-4-|
--2----0---0---0-2------------2-|--------2-----2-----2---2-0---0---|
--------------------------------|----------------------------------|


  S S S E  S S S S S S E  S S S    S S S E  S S S S S S S S S S S  
--------------------------------|---------------------------------|
--------------------------------|---------------------------------|
--------------------------------|-----------------------2---2---2-|
--2-2-4-4--4-4-4-2-2-4-4--4-4-4-|--2-2-4-4--4-4-4---6---0---0---0-|
--0-0-2-2--2-2-2-0-0-2-2--2-2-2-|--0-0-2-2--2-2-2---4-------------|
--------------------------------|---------------------------------|


  S S S E  S S S S S S E  S S S    S S S E  S S S S S S S S S S S  
--------------------------------|---------------------------------|
--------------------------------|---------------------------------|
--------------------------------|-------------------2---4---4---4-|
--2-2-4-4--4-4-4-2-2-4-4--4-4-4-|--2-2-4-4--4-4-4---0---2---2---2-|
--0-0-2-2--2-2-2-0-0-2-2--2-2-2-|--0-0-2-2--2-2-2-----------------|
--------------------------------|---------------------------------|


  E  S S S S S S E  S S S S S S    E  S S S S S S S S S S S S S S  
--------------------------------|---------------------------------|
--------------------------------|---------------------------------|
----------------------2---2-----|---------------------------------|
--4----2---2---2-4----0---0---2-|---------------------2---4---2---|
--2----0---0---0-2------------0-|--4----2---2---2-4-2-0-4-2-4-0-4-|
--------------------------------|--2----0---0---0-2-0---2---2---2-|


  E  S S S S S S E  S S S S S S    E  S S S S S S S S S S S S S S  
--------------------------------|---------------------------------|
--------------------------------|---------------------------------|
----------------------2---2-----|---------------------------------|
--4----2---2---2-4----0---0---2-|-----------------4-2---4-2---4-2-|
--2----0---0---0-2------------0-|--4----2---2---4-2-0-4-2-0-4-2-0-|
--------------------------------|--2----0---0---2-----2-----2-----|


  E  S S S S S S E  S S S S S S    E  S S S S S S S S S S S S S S  
--------------------------------|---------------------------------|
--------------------------------|---------------------------------|
----------------------2---2-----|---------------------------------|
--4----2---2---2-4----0---0---2-|---------------------2---4---2---|
--2----0---0---0-2------------0-|--4----2---2---2-4-2-0-4-2-4-0-4-|
--------------------------------|--2----0---0---0-2-0---2---2---2-|


  E  S S S S S S E  S S S S S S    S S S S S S S S S S S S S S S S  
--------------------------------|----------------------------------|
--------------------------------|----------------------------------|
----------------------2---2-----|----4-2---4-2---4-2---2-----6---6-|
--4----2---2---2-4----0---0---4-|----2-0-4-2-0-4-2-0-4-0-4-2-4-2-4-|
--2----0---0---0-2------------2-|--------2-----2-----2---2-0---0---|
--------------------------------|----------------------------------|




Solo 1


    S  S  S  H        E.  E      S  S  S  H        E.  E   
--14----14-17--------L------|--14----14-19--------L------|
-----17---------------------|-----17---------------------|
----------------------------|----------------------------|
----------------------------|----------------------------|
----------------------------|----------------------------|
----------------------------|----------------------------|


   S  S  S  S  S  S  S  S  S  S  S  S  S  S  S  S  
--------------------------------------------------|
--17-15----17-15----17-15-17-15----17-15----17-15-|
--------16-------16-------------16-------16-------|
--------------------------------------------------|
--------------------------------------------------|
--------------------------------------------------|


   S  S  S  S  S  S  S  S  S  S  S  S  S  S  S  S    H.           Q     
--------------------14-10-12-10----10----10----10-|--------------------|
--17-15----17-15----------------12----10----------|--7-----------------|
--------16-------16-------------------------12----|--------------------|
--------------------------------------------------|--------------------|
--------------------------------------------------|--------------------|
--------------------------------------------------|--------------------|


  H        T T T T T T T T T T T  T T  T  T  T  
-------------0-2-0-2-5-2-5-7-5-7-10-7-10-12-10-|
-----------0-----------------------------------|
-----------------------------------------------|
-----------------------------------------------|
-----------------------------------------------|
-----------------------------------------------|


   T  T  T  T  T  T  T  T  T  T  T  T  T  T  T  T  T  T  T  T  T  T  T  T  T  T 
--12-14-12-14-17-14-17-19----17-19----17-19----17-19----17-19----17-19----17-19-
--------------------------19-------19-------19-------19-------19-------19-------
--------------------------------------------------------------------------------
--------------------------------------------------------------------------------
--------------------------------------------------------------------------------
--------------------------------------------------------------------------------


   T  T  T  T  T  T  T  T  T  T  T  T  T  T  T  T  T  T  T  T  T  T  T  Q    T  
-----17-19----17-19----17-19----17-19----17-19----17-19----17-19----17-19------|
--19-------19-------19-------19-------19-------19-------19-------19------------|
-------------------------------------------------------------------------------|
-------------------------------------------------------------------------------|
-------------------------------------------------------------------------------|
-------------------------------------------------------------------------------|




Solo 2


   S  S  S  S  S  S  S  S  S  S  S  S  S  S  S  S  
--14-14-14-14-14-14-14-14-17-14-14-14-14-14-14-14-|
--------------------------------------------------|
--------------------------------------------------|
--------------------------------------------------|
--------------------------------------------------|
--------------------------------------------------|


   S  S  S  S  S  S  S  S  S  S  S  S  S  S  S  S    W                 
--19-14-14-14-17-14-14-14----14-14-14-17-14-14-19-|--L----------------|
--------------------------17----------------------|-------------------|
--------------------------------------------------|-------------------|
--------------------------------------------------|-------------------|
--------------------------------------------------|-------------------|
--------------------------------------------------|-------------------|


                         \1    \1     \1    \1        \1    \1     \1    \1     
   W                     Q     Q      Q     Q         Q     Q      Q     Q      
--19b----------------|--------21~----------20~----|--------19~----------18~----|
---------------------|--22-----------21-----------|--20-----------19-----------|
---------------------|----------------------------|----------------------------|
---------------------|----------------------------|----------------------------|
---------------------|----------------------------|----------------------------|
---------------------|----------------------------|----------------------------|


   S  S  S  S  S  S  S  S  S  S  S  S  S  S  S  S  
--------------------------------------------------|
--17-15----17-15----17-15-19-15-17-15----17-15----|
--------16-------16-------------------16-------16-|
--------------------------------------------------|
--------------------------------------------------|
--------------------------------------------------|


  S  S  S  S  S  S  S  S  S  S  S  S  S  S  S  S    W                 
-------------------------------------------------|-------------------|
----17-15----17-15----17-15----15----------------|-------------------|
----------16-------16-------16----16-------------|-------------------|
-------------------------------------16-14-16-14-|-------------------|
-------------------------------------------------|-------------------|
-------------------------------------------------|-------------------|





Duration Legend
---------------
W - whole
H - half
Q - quarter
E - 8th
S - 16th
T - 32nd
X - 64th
. - note dotted
|-n-|  - n-tuplets


Tablature Legend
----------------
L - tied note
x - dead note
g - grace note
(n) - ghost note
> - accentuded note
NH - natural harmonic
AH - artificial harmonic
TH - tapped harmonic
SH - semi harmonic
PH - pitch harmonic
h - hammer on
p - pull off
b - bend
br - bendRelease
pb - preBend
pbr - preBendRelease
brb - bendReleaseBend
\n/ - tremolo bar dip
\n - tremolo bar dive
-/n - tremolo bar Release up
/n\ - tremolo bar inverted dip
/n - tremolo bar return
-\n - tremolo bar Release down
S - shift slide
s - legato slide
/ -  slide into from below or out of upwards
\ -  slide into from above or out of downwards
~ - vibrato
W - wide vibrato
tr - trill
TP - tremolo picking
T - tapping
S - slap
P - pop
< - fade in
^ - brush up
v - brush down
Tap to rate this tab
 
# A B C D E F G H I J K L M N O P Q R S T U V W X Y Z