Song name
# A B C D E F G H I J K L M N O P Q R S T U V W X Y Z

Misc Computer Games - Commando Theme tab

-------------------------------------------------------------------------------
			     Commando Theme for Nintendo
-------------------------------------------------------------------------------
Game: Commando
Song: Main Theme
Platform: Nintendo

Tabbed by: deathx88
Email: deathx88@yahoo.com

Tuning: Standard




Guitar 1


     Q    S S  S S E.   S S S  S S     Q     S S S S  E.  S S S S S  
E||--9----8---10---9---------------|--------------------------------|
B||--------------------10----------|-------------9------------------|
G||-----------------------9---10---|--11----10-------11---7-6---8---|
D||--------------------------------|--------------------------------|
A||--------------------------------|--------------------------------|
E||--------------------------------|--------------------------------|


            |-----3-----|        3   3                     
  Q.     E  H        E  E     S. X S E  Q    E  E   E  E   
---------------------------|------------------------------|
---------------------------|---------------------------9--|
--9------9--8--------6--8--|--9------9--9-------9--11-----|
---------------------------|------------------------------|
---------------------------|------------------------------|
---------------------------|------------------------------|


   Q     S S  S S  E.   S  S S  S S    E  S  S Q.     E  E  E   
--12----11---12---14---12-11---12---|--9-----------------------|
------------------------------------|-------10-----------------|
------------------------------------|----------9------9--9--9--|
------------------------------------|--------------------------|
------------------------------------|--------------------------|
------------------------------------|--------------------------|


   Q     S S  S S  E.   S  S S  S S    H        E  E  E  E   
--12----11---12---14---12-11---12---|--9-----------9--9--9--|
------------------------------------|-----------------------|
------------------------------------|-----------------------|
------------------------------------|-----------------------|
------------------------------------|-----------------------|
------------------------------------|-----------------------|


  E  S S Q.     E   E  E     E  S  S Q.      E  E  E   
--9----7--------7---------|--7------------------------|
---------7---------10--9--|-------10--------10--9--7--|
--------------------------|----------9----------------|
--------------------------|---------------------------|
--------------------------|---------------------------|
--------------------------|---------------------------|


         |---3---|                                           
  E  S S E   E   E   E   E  E  E     E  S S Q.     E  E  E   
----------------------------------|-------------------------|
--9----9-9--10--11--12--10--9--7--|-------------------------|
----------------------------------|--9------9------9--9--9--|
----------------------------------|-------9-----------------|
----------------------------------|-------------------------|
----------------------------------|-------------------------|


   Q     S S  S S  E.   S  S S  S S    E  S  S Q.     E  E  E   
--12----11---12---14---12-11---12---|--9-----------------------|
------------------------------------|-------10-----------------|
------------------------------------|----------9------9--9--9--|
------------------------------------|--------------------------|
------------------------------------|--------------------------|
------------------------------------|--------------------------|


   Q     S S  S S  E.   S  S S  S S    H        E  E  E  E   
--12----11---12---14---12-11---12---|--9-----------9--9--9--|
------------------------------------|-----------------------|
------------------------------------|-----------------------|
------------------------------------|-----------------------|
------------------------------------|-----------------------|
------------------------------------|-----------------------|


  E  S S Q.     E   E  E     E  S  S Q.      E  E  E   
--9----7--------7---------|--7------------------------|
---------7---------10--9--|-------10--------10--9--7--|
--------------------------|----------9----------------|
--------------------------|---------------------------|
--------------------------|---------------------------|
--------------------------|---------------------------|


         |---3---|                                           
  E  S S E   E   E   E   E  E  E     E  S S Q.     E  E  E   
----------------------------------|-------------------------|
--9----9-9--10--11--12--10--9--7--|-------------------------|
----------------------------------|--9------9------9--9--9--|
----------------------------------|-------9-----------------|
----------------------------------|-------------------------|
----------------------------------|-------------------------|


               |-----3----|                               
   Q.      E   Q    Q     Q       E  S S Q.     E  E  E   
-------------------------------|-------------------------|
--------------10----8----------|-------------------------|
--10------10-------------10----|--9------9------9--9--9--|
-------------------------------|-------9-----------------|
-------------------------------|-------------------------|
-------------------------------|-------------------------|


               |-----3----|                          
   Q.      E   Q    Q     Q       H.           Q     
-------------------------------|--7-----------------|
--------------10----9----10----|--------------------|
--10------10-------------------|--------------------|
-------------------------------|--------------------|
-------------------------------|--------------------|
-------------------------------|--------------------|


  |--3--|  |---3--|   |---3---|   |---3---|   
  E  E  E  E  E   E   E   E   E   E   E   E   
---------------------------------------------|
--5--6--7--8--9--10--11--12--13--14--15--16--|
---------------------------------------------|
---------------------------------------------|
---------------------------------------------|
---------------------------------------------|




Guitar 2


     Q    S S S S E.  S S S S S    Q    S S S S E.  S S S S S  
E||--5----4---4---5---5---------|-----------------------------|
B||-----------------------------|-----------------------------|
G||---------------------6---4---|-----------------------------|
D||-----------------------------|--7----6---9---7---7-7---7---|
A||-----------------------------|-----------------------------|
E||-----------------------------|-----------------------------|


                           3   3                    
  Q.     E  H           S. X S E  Q    E  E  E  E   
---------------------|-----------------------------|
---------------------|-----------------------------|
---------------------|--------------------9--8--7--|
--6------6--7--------|--6------6--6----------------|
---------------------|-----------------------------|
---------------------|-----------------------------|


  Q    S S S S Q    S S S S    E  S S Q.     E  E  E   
--5----5---5---5----5---5---|--5----------------------|
----------------------------|-------5-----------------|
----------------------------|---------6------6--6--6--|
----------------------------|-------------------------|
----------------------------|-------------------------|
----------------------------|-------------------------|


  Q    S S S S Q    S S S S    H        E  E  E  E     E  S S Q.     E  E  E   
--5----5---5---5----5---5---|--5-----------5--5--5--|-------------------------|
----------------------------|-----------------------|--7----7--------7--7--7--|
----------------------------|-----------------------|---------4---------------|
----------------------------|-----------------------|-------------------------|
----------------------------|-----------------------|-------------------------|
----------------------------|-----------------------|-------------------------|


                                   |--3--|               
  E  S S Q.     E  E  E     E  S S E  E  E  E  E  E  E   
-------------------------|------------------------------|
--5----5--------5--5--5--|--5----5-5--5--5--4--2--0-----|
-------------------------|---------------------------2--|
---------7---------------|------------------------------|
-------------------------|------------------------------|
-------------------------|------------------------------|


  E  S S Q.     E  E  E     Q    S S S S Q    S S S S  
-------------------------|--5----5---5---5----5---5---|
----------------3--3--3--|----------------------------|
--1----2-1---------------|----------------------------|
-------------------------|----------------------------|
-------------------------|----------------------------|
-------------------------|----------------------------|


  E  S S Q.     E  E  E     Q    S S S S Q    S S S S    H        E  E  E  E   
--5----------------------|--5----5---5---5----5---5---|--5-----------5--5--5--|
-------5-----------------|----------------------------|-----------------------|
---------6------6--6--6--|----------------------------|-----------------------|
-------------------------|----------------------------|-----------------------|
-------------------------|----------------------------|-----------------------|
-------------------------|----------------------------|-----------------------|


  E  S S Q.     E  E  E     E  S S Q.     E  E  E   
-------------------------|-------------------------|
--7----7--------7--7--7--|--5----5--------5--5--5--|
---------4---------------|-------------------------|
-------------------------|---------7---------------|
-------------------------|-------------------------|
-------------------------|-------------------------|


         |--3--|                                         
  E  S S E  E  E  E  E  E  E     E  S S Q.     E  E  E   
------------------------------|-------------------------|
--5----5-5--5--5--4--2--0-----|----------------3--3--3--|
---------------------------2--|--1----2-1---------------|
------------------------------|-------------------------|
------------------------------|-------------------------|
------------------------------|-------------------------|


            |----3----|                               
  Q.     E  Q    Q    Q       E  S S Q.     E  E  E   
---------------------------|-------------------------|
------------1--------------|-------------------------|
--2------2-------3----2----|--1------1------1--1--1--|
---------------------------|-------4-----------------|
---------------------------|-------------------------|
---------------------------|-------------------------|


            |----3----|                          
  Q.     E  Q    Q    Q       H.           Q     
---------------------------|--0-----------------|
------------1----0----1----|--------------------|
--2------2-----------------|--------------------|
---------------------------|--------------------|
---------------------------|--------------------|
---------------------------|--------------------|


       |--3--|  |--3--|  |--3--|                                
  Q    E  E  E  E  E  E  E  E  E   
----------------------------------|
----------------------------0--1--|
----------------0--1--2--3--------|
-------2--3--4--------------------|
----------------------------------|
----------------------------------|




Guitar 3


     Q    Q    Q    S S S S    Q    Q    Q    S S S S  
E||-------------------------|-------------------------|
B||-------------------------|-------------------------|
G||--2---------2----L---1---|-------------------------|
D||-------2-----------------|--4---------4----L-------|
A||-------------------------|-------4-------------2---|
E||-------------------------|-------------------------|


  |-3-| |-3-| |-3-| |-3-|                3   3                  
  S S S S S S S S S S S S H           S. X S E  Q    E  Q.      
-----------------------------------|---------------------------|
----5---5---5---5---5---5----------|---------------------------|
-----------------------------------|---------------------------|
--2---2---2---2---2---2------------|--2------2--2-------2------|
--------------------------2--------|---------------------------|
-----------------------------------|---------------------------|


  E  E  E  E  E  E  E  E     E  E  E  E  E  E  E  E   
--------------------------|--------------------------|
--------------------------|--------------------------|
--2-----1-----------------|--2-----1-----------------|
--------------4-----2-----|--------------4-----2-----|
--------------------------|--------------------------|
--------------------------|--------------------------|


  E  E  E  E  E  E  E  E     E  E  E  E  E  E  E  E   
--------------------------|--------------------------|
--------------------------|--------------------------|
--2-----1-----------------|--2-----1-----------------|
--------------4-----2-----|--------------4-----2-----|
--------------------------|--------------------------|
--------------------------|--------------------------|


  |-3-| |-3-| |-3-| |-3-|              |-3-| |-3-| |-3-| |-3-|            
  S S S S S S S S S S S S Q    Q       S S S S S S S S S S S S Q    Q     
------------------------------------|------------------------------------|
------------------------------------|------------------------------------|
----8---8---8---8---8---8-----------|----6---6---6---6---6---6-----------|
------------------------------------|------------------------------------|
--6---6---6---6---6---6---5---------|--4---4---4---4---4---4---3---------|
------------------------------------|------------------------------------|


  Q    Q.     E  E  E     E  S S Q.     E  E  E     E  E  E  E  E  E  E  E   
-----------------------|-------------------------|--------------------------|
-----------------------|-------0-----------------|--------------------------|
-----------------------|----------------------1--|--2-----1-----------------|
--------------------1--|--2------2------2--4-----|--------------4-----2-----|
--2-----------2--4-----|-------------------------|--------------------------|
-----------------------|-------------------------|--------------------------|


  E  E  E  E  E  E  E  E     E  E  E  E  E  E  E  E   
--------------------------|--------------------------|
--------------------------|--------------------------|
--2-----1-----------------|--2-----1-----------------|
--------------4-----2-----|--------------4-----2-----|
--------------------------|--------------------------|
--------------------------|--------------------------|


                             |-3-| |-3-| |-3-| |-3-|            
  E  E  E  E  E  E  E  E     S S S S S S S S S S S S Q    Q     
--------------------------|------------------------------------|
--------------------------|------------------------------------|
--2-----1-----------------|----8---8---8---8---8---8-----------|
--------------4-----2-----|------------------------------------|
--------------------------|--6---6---6---6---6---6---5---------|
--------------------------|------------------------------------|


  |-3-| |-3-| |-3-| |-3-|                                    
  S S S S S S S S S S S S Q    Q       Q    Q.     E  E  E   
------------------------------------|-----------------------|
------------------------------------|-----------------------|
----6---6---6---6---6---6-----------|-----------------------|
------------------------------------|--------------------1--|
--4---4---4---4---4---4---3---------|--2-----------2--4-----|
------------------------------------|-----------------------|


  E  S S Q.     E  E  E   
-------------------------|
-------0-----------------|
----------------------1--|
--2------2------2--4-----|
-------------------------|
-------------------------|


  |--3-|  |--3-| |--3-|  |--3-| |--3-|  |--3-| |--3-|  |--3-|  
  S  S S  S S  S S  S S  S S  S S  S S  S S  S S  S S  S S  S  
--------------------------------------------------------------|
--------------------------------------------------------------|
----10---10---10---10---10---10---10---10---10---10---10---10-|
--------------------------------------------------------------|
--8----8----8----8----8----8----8----8----8----8----8----8----|
--------------------------------------------------------------|


                            |-3-| |-3-| |-3-| |-3-| |-3-| |-3-| |-3-| |-3-|  
  Q    E  E  E  E  E  E     S S S S S S S S S S S S S S S S S S S S S S S S  
-------------------------|--------------------------------------------------|
-------------------------|--------------------------------------------------|
-------------------------|----8---8---8---8---8---8---8---8---8---8---8---8-|
--2----------------------|--------------------------------------------------|
----------2--1--2--4--2--|--6---6---6---6---6---6---6---6---6---6---6---6---|
-------------------------|--------------------------------------------------|


                                      |--3--|  |--3--|   
  E  E  E  E  E  E  E  E     H        E  E  E  E  E  E   
--------------------------|-----------------------------|
--------------------------|-----------------------------|
--------------------------|--------------------0--1--3--|
--2--1--------2--1--------|-----------2--3--4-----------|
--------4--2--------4--2--|-----------------------------|
--------------------------|-----------------------------|





Duration Legend
---------------
W - whole
H - half
Q - quarter
E - 8th
S - 16th
T - 32nd
X - 64th
. - note dotted
|-n-|  - n-tuplets


Tablature Legend
----------------
L - tied note
x - dead note
g - grace note
(n) - ghost note
> - accentuded note
NH - natural harmonic
AH - artificial harmonic
TH - tapped harmonic
SH - semi harmonic
PH - pitch harmonic
h - hammer on
p - pull off
b - bend
br - bendRelease
pb - preBend
pbr - preBendRelease
brb - bendReleaseBend
\n/ - tremolo bar dip
\n - tremolo bar dive
-/n - tremolo bar Release up
/n\ - tremolo bar inverted dip
/n - tremolo bar return
-\n - tremolo bar Release down
S - shift slide
s - legato slide
/ -  slide into from below or out of upwards
\ -  slide into from above or out of downwards
~ - vibrato
W - wide vibrato
tr - trill
TP - tremolo picking
T - tapping
S - slap
P - pop
< - fade in
^ - brush up
v - brush down
Tap to rate this tab
 
# A B C D E F G H I J K L M N O P Q R S T U V W X Y Z