Song name
# A B C D E F G H I J K L M N O P Q R S T U V W X Y Z

Misc Computer Games - Burgertime Theme tab

-------------------------------------------------------------------------------
			     Burgertime Theme for Nintendo
-------------------------------------------------------------------------------
Game: Burgertime
Song: Main Theme
Platform: Nintendo

Tabbed by: deathx88
Email: deathx88@yahoo.com

Tuning: Standard




Guitar


      E   E   E   E   S S  S S  S S  S S  
E||--12--13--14--15--16--------16--------|
B||-----------------------16--------16---|
G||--------------------------------------|
D||--------------------------------------|
A||--------------------------------------|
E||--------------------------------------|


   S  S  S  S  S  S  S  S  S S  S S  S S  S S  
--14-19-18-16-14-13-14-13-14---19--------19---|
------------------------------------19--------|
----------------------------------------------|
----------------------------------------------|
----------------------------------------------|
----------------------------------------------|


   S S  S S  S S  S S  S S  S S  S S  S S  
-------23--------23--------21--------19---|
--19--------------------------------------|
------------23--------21--------20--------|
------------------------------------------|
------------------------------------------|
------------------------------------------|


   S S  S S  S S  S S  E   E   E   E   
-------21--------19-------------------|
--17------------------17--18--19--20--|
------------20------------------------|
--------------------------------------|
--------------------------------------|
--------------------------------------|


   E   E   E   E   S  S  S  S  S  S  S  S     E   E   E   E   E   E   E   E   
---------------------19-18-16-14-13-14-13-|--14--19------19------23------23--|
--21------21------19----------------------|----------19------19--------------|
------20------20--------------------------|--------------------------23------|
------------------------------------------|----------------------------------|
------------------------------------------|----------------------------------|
------------------------------------------|----------------------------------|


   E   E   E   E   E   E   E   E      E   E   E   E   E   E   E   E   
------21------19------21------19--|----------------------------------|
------------------17--------------|--17--18--19--20--21------21------|
--21------20--------------20------|----------------------20------20--|
----------------------------------|----------------------------------|
----------------------------------|----------------------------------|
----------------------------------|----------------------------------|


   S  S  S  S  S  S  S  S  E   E   E   E      E   E   E   E   E   E   E   E   
-----19-18-16-14-13-14-13-14--19------19--|------23------23------21------19--|
--19------------------------------19------|--19------------------------------|
------------------------------------------|----------23------21------20------|
------------------------------------------|----------------------------------|
------------------------------------------|----------------------------------|
------------------------------------------|----------------------------------|


   E   E   E   E  H                                                         
------21------19-----------|
--17-----------------------|
----------20---------------|
---------------------------|
---------------------------|
---------------------------|




Bass


     E  E  E  E  Q    E.  S    S S S S S S S S S E  S E  E   
E||-------------------------|-------------------------------|
B||-------------------------|-------------------------------|
G||-------------------------|-------------------------------|
D||--2--1--0----------------|--------------0-1-0-1----1-----|
A||-----------4--3----3-----|--2---4---2--------------------|
E||-------------------------|-------------------------------|


  E  E  E  E  S E.  S E.     S E.  S E.  E  E  E  E   
--------------------------|--------------------------|
--------------------------|--------------------------|
--------------------------|--------------------------|
--------------------------|--------------2--1--0-----|
--2-----2-----4-----2-----|--4-----2--------------4--|
--------------------------|--------------------------|


  Q    E.  S S S S S S S S S    S E  S E  E  E  E  E  E   
-----------------------------|---------------------------|
-----------------------------|---------------------------|
-----------------------------|---------------------------|
-------------------------0-1-|--0-1----1-----------------|
--3----3-----2---4---2-------|---------------2-----2-----|
-----------------------------|---------------------------|


  S E.  S E.  S E.  S E.     E  E  E  E  Q    E.  S  
--------------------------|-------------------------|
--------------------------|-------------------------|
--------------------------|-------------------------|
--------------------------|--2--1--0----------------|
--4-----2-----4-----2-----|-----------4--3----3-----|
--------------------------|-------------------------|


  S S S S S S S S S E  S E  E     E  E  E  E  S E.  S E.   
-------------------------------|--------------------------|
-------------------------------|--------------------------|
-------------------------------|--------------------------|
--------------0-1-0-1----1-----|--------------------------|
--2---4---2--------------------|--2-----2-----4-----2-----|
-------------------------------|--------------------------|





Duration Legend
---------------
W - whole
H - half
Q - quarter
E - 8th
S - 16th
T - 32nd
X - 64th
. - note dotted
|-n-|  - n-tuplets


Tablature Legend
----------------
L - tied note
x - dead note
g - grace note
(n) - ghost note
> - accentuded note
NH - natural harmonic
AH - artificial harmonic
TH - tapped harmonic
SH - semi harmonic
PH - pitch harmonic
h - hammer on
p - pull off
b - bend
br - bendRelease
pb - preBend
pbr - preBendRelease
brb - bendReleaseBend
\n/ - tremolo bar dip
\n - tremolo bar dive
-/n - tremolo bar Release up
/n\ - tremolo bar inverted dip
/n - tremolo bar return
-\n - tremolo bar Release down
S - shift slide
s - legato slide
/ -  slide into from below or out of upwards
\ -  slide into from above or out of downwards
~ - vibrato
W - wide vibrato
tr - trill
TP - tremolo picking
T - tapping
S - slap
P - pop
< - fade in
^ - brush up
v - brush down
Tap to rate this tab
# A B C D E F G H I J K L M N O P Q R S T U V W X Y Z