Song name
# A B C D E F G H I J K L M N O P Q R S T U V W X Y Z

Misc Computer Games - Legend Of Zelda Links Awakening - Ballad Of The Windfish tab

-------------------------------------------------------------------------------
        Legend Of Zelda: Links Awakening Ballad of the Windfish for Gameboy
-------------------------------------------------------------------------------
Game: Legend Of Zelda: Links Awakening
Song: Ballad of the Windfish
Platform: Gameboy

Tabbed by: deathx88
Email: deathx88@yahoo.com

Tuning: Standard




Guitar 1


     H        E   E   E   E     H        E   E   E   E   
E||--------------19--21--22--|--L--------L--19--21--22--|
B||--------------------------|--------------------------|
G||--------------------------|--------------------------|
D||--------------------------|--------------------------|
A||--------------------------|--------------------------|
E||--------------------------|--------------------------|


  H        E   E   E   E      Q.      H        E     H        E   E   E   E   
--L--------L--21--19------|--17------19--------L--|--L-----------------------|
----------------------19--|-----------------------|----------------------15--|
--------------------------|-----------------------|--------------16--18------|
--------------------------|-----------------------|--------------------------|
--------------------------|-----------------------|--------------------------|
--------------------------|-----------------------|--------------------------|


  H        E   E   E   E     H        E   E   E   E     H.           E  E   
----------------------15--|--L--------L--14--12--14--|--L------------L--L--|
--L--------L------15------|--------------------------|---------------------|
--------------16----------|--------------------------|---------------------|
--------------------------|--------------------------|---------------------|
--------------------------|--------------------------|---------------------|
--------------------------|--------------------------|---------------------|


  W                   Q     Q     Q     Q        Q.      Q.     Q     
--L----------------|-------24----22----------|-----------------------|
-------------------|-------------------19----|--19------20------L----|
-------------------|-------24----23----------|-----------------------|
-------------------|-------------------19----|--19------21------L----|
-------------------|-------------------------|-----------------------|
-------------------|-------------------------|-----------------------|


  Q.      E   E   E   E   E      E   E   E   Q.      E   E   
---------24--22--21--19------|----------19--------------17--|
-------------------------19--|--17--19------20------20------|
---------24--23--21--19------|----------19--------------18--|
-------------------------19--|--17--19------21------21------|
-----------------------------|------------------------------|
-----------------------------|------------------------------|


  Q.     E   E   E   E   E     Q.     Q.      E   E     H.           E  E   
--L-----------------17------|--------------------19--|--L------------L-----|
----------------17------19--|--L------L--------------|---------------------|
--L---------18------18------|----------------19--19--|--L------------L-----|
----------------17------19--|--L------L--------------|---------------------|
------------19--------------|----------------21------|---------------------|
----------------------------|------------------------|---------------------|


   Q.      Q.      Q       Q    H        Q       H        
--18------27------26----|--L----L--------L----|--L------------|
----------23------22----|--L----L--------L----|--L------------|
--18--------------------|---------------------|---------------|
------------------------|---------------------|---------------|
------------------------|---------------------|---------------|
------------------------|---------------------|---------------|





Guitar 2


     E  E   E  E  E  E   E  E     E  E   E  E  E  E   E  E   
E||--------10--7--------10--7--|--------10--7--------10--7--|
B||-----8------------8---------|-----8------------8---------|
G||--9------------9------------|--9------------9------------|
D||----------------------------|----------------------------|
A||----------------------------|----------------------------|
E||----------------------------|----------------------------|


  E  E  E  E  E  E  E  E     E  E  E  E  E  E  E  E   
--------9--7--------9--7--|--------9--7--------9--7--|
-----7-----------7--------|-----7-----------7--------|
--7-----------7-----------|--7-----------7-----------|
--------------------------|--------------------------|
--------------------------|--------------------------|
--------------------------|--------------------------|


  E  E   E  E  E  E   E  E     E  E   E  E  E   E   E  E   
--------10--7--------10--7--|--------10--7---------10--7--|
-----8------------8---------|-----8------------10---------|
--9------------9------------|--9------------9-------------|
----------------------------|-----------------------------|
----------------------------|-----------------------------|
----------------------------|-----------------------------|


  E  E  E  E  E  E  E  E     E  E  E  E  E  E  E  E   
--------9--7--------9--7--|--------9--7--------9--7--|
-----7-----------7--------|-----7-----------7--------|
--7-----------7-----------|--7-----------7-----------|
--------------------------|--------------------------|
--------------------------|--------------------------|
--------------------------|--------------------------|


  E  E  E  E  E  E  E  E     E  E  E  E  E  E  E  E   
--------7-----------7-----|--------7-----------7-----|
-----------7-----------7--|-----------8-----------8--|
-----7-----------7--------|-----9-----------9--------|
--9-----------9-----------|--9-----------9-----------|
--------------------------|--------------------------|
--------------------------|--------------------------|


  E  E  E  E  E  E  E  E     E  E  E  E  E  E  E  E   
--------7-----------7-----|--------7-----------7-----|
-----------7-----------7--|-----------8-----------8--|
-----7-----------7--------|-----9-----------9--------|
--9-----------9-----------|--9-----------9-----------|
--------------------------|--------------------------|
--------------------------|--------------------------|


  E  E  E  E  E  E  E  E     E  E  E  E  E  E  E  E   
--------5-----------5-----|--------------------------|
-----------5-----------5--|--------7-----------7-----|
-----6-----------6--------|-----5-----8-----5-----8--|
--7-----------7-----------|--7-----------7-----------|
--------------------------|--------------------------|
--------------------------|--------------------------|


  E  E  E  E  E  E  E  E     E  E  E  E  E  E  E  E   
--------------------------|--------------------------|
--------7-----------7-----|--------5-----------5-----|
-----4-----7-----4-----7--|-----------6-----------6--|
--5-----------5-----------|--5--8--------5--8--------|
--------------------------|--------------------------|
--------------------------|--------------------------|


  E  E  E   E  E  E  E   E    
--------9------------9------|
-----7-----10-----7-----10--|
--7------------7------------|
----------------------------|
----------------------------|
----------------------------|




Guitar 3
start on the second time


  H        E  E  E   E     H        E  E  E   E     H        E  E  E  E   
--------------7--9--10--|--L--------L--7--9--10--|--L--------L--9--7-----|
------------------------|------------------------|--------------------7--|
--------------7--9--11--|--L--------L--7--9--11--|--L--------L--7--9--7--|
------------------------|------------------------|-----------------------|
------------------------|------------------------|-----------------------|
------------------------|------------------------|-----------------------|


  Q.     H        E     H        E  E  E   E     H        E  E   E   E   
--5------7--------L--|--L-----------7--9--10--|--L--------L--7--10--15--|
--7------------------|------------------------|---------------------12--|
---------7--------L--|--L-----------7--9--11--|--L--------L--7--11------|
---------------------|------------------------|-------------------------|
---------------------|------------------------|-------------------------|
---------------------|------------------------|-------------------------|


  H        E   E   E   E     H.           E  E     W                 
--L--------L--14--12--14--|--L------------L--L--|--L----------------|
--L--------L--------------|---------------------|-------------------|
--------------14--12--14--|--L------------L--L--|--L----------------|
--------------------------|---------------------|-------------------|
--------------------------|---------------------|-------------------|
--------------------------|---------------------|-------------------|


  Q     Q     Q    Q       Q.     Q.     Q       Q.      E   E  E  E  E   
-------12----10---------|---------------------|---------12--10--9--7-----|
-------------------7----|--7------8------L----|-----------------------7--|
-------12----11---------|---------------------|---------14--11--9--7-----|
-------------------9----|--9------9------L----|-----------------------9--|
------------------------|---------------------|--------------------------|
------------------------|---------------------|--------------------------|


  E  E  E  Q.     E   E     Q.     E  E  E   E  E     Q.     Q.     E  E   
--------7-------------5--|--L----------------5-----|-------------------7--|
--5--7-----8------8------|---------------5------7--|--L------L------------|
--------7------------11--|--L---------6-----11-----|----------------7--7--|
--7--9-----9------9------|---------------5------9--|--L------L------------|
-------------------------|------------7------------|----------------9-----|
-------------------------|-------------------------|----------------------|


  H.           E  E      Q.      Q.      Q       Q    H        Q     
--L------------L-----|----------15------14----|--L----L--------L----|
---------------------|--11--------------------|---------------------|
--L------------L-----|----------15------14----|--L----L--------L----|
---------------------|--11--------------------|---------------------|
---------------------|------------------------|---------------------|
---------------------|------------------------|---------------------|




Duration Legend
---------------
W - whole
H - half
Q - quarter
E - 8th
S - 16th
T - 32nd
X - 64th
. - note dotted
|-n-|  - n-tuplets


Tablature Legend
----------------
L - tied note
x - dead note
g - grace note
(n) - ghost note
> - accentuded note
NH - natural harmonic
AH - artificial harmonic
TH - tapped harmonic
SH - semi harmonic
PH - pitch harmonic
h - hammer on
p - pull off
b - bend
br - bendRelease
pb - preBend
pbr - preBendRelease
brb - bendReleaseBend
\n/ - tremolo bar dip
\n - tremolo bar dive
-/n - tremolo bar Release up
/n\ - tremolo bar inverted dip
/n - tremolo bar return
-\n - tremolo bar Release down
S - shift slide
s - legato slide
/ -  slide into from below or out of upwards
\ -  slide into from above or out of downwards
~ - vibrato
W - wide vibrato
tr - trill
TP - tremolo picking
T - tapping
S - slap
P - pop
< - fade in
^ - brush up
v - brush down
Tap to rate this tab
# A B C D E F G H I J K L M N O P Q R S T U V W X Y Z