Song name
# A B C D E F G H I J K L M N O P Q R S T U V W X Y Z

Misc Computer Games - Legend Of Zelda Links Awakening - Boss Battle tab

-------------------------------------------------------------------------------
           Legend Of Zelda: Links Awakening Boss Battle for Gameboy
-------------------------------------------------------------------------------
Game: Legend Of Zelda: Links Awakening
Song: Boss Battle
Platform: Gameboy

Tabbed by: deathx88
Email: deathx88@yahoo.com

Tuning: Standard



      T  T  T  T  T T T T T T T T T T T T    S S S E  E.  E.  E.  E   
E||--14-13-12-11-10-9-8-7-6-5-4-3-2-1-0---|--------------------------|
B||--14-13-12-11-10-9-8-7-6-5-4-3-2-1-0-4-|--------------------------|
G||-------------------------------------3-|--4-4-4-3------2----------|
D||---------------------------------------|--2-2-2-1------0---6------|
A||---------------------------------------|-------------------4------|
E||---------------------------------------|--------------------------|


  S S S E  E.  E.  E.  E     S S S E  E.  E.  E.  E   
--------------------------|--------------------------|
--------------------------|--------------------------|
--4-4-4-3------2----------|--6-6-6-5------4---3------|
--2-2-2-1------0---6------|--4-4-4-3------2---1------|
-------------------4------|--------------------------|
--------------------------|--------------------------|


  S S S E  E.  E.  E.  E     E.  E.  S  S  S  E  S    S S S E  E.  E.  E.  E   
--------------------------|------------------------|--------------------------|
--------------------------|------------------------|--------------------------|
--6-6-6-5------4---3------|--9---8---9-10-11-12----|--8-8-8-7------6---5------|
--4-4-4-3------2---1------|--9---8---9-10-11-12----|--6-6-6-5------4---3------|
--------------------------|------------------------|--------------------------|
--------------------------|------------------------|--------------------------|


  S S S E  E.  E.  E.  E      S  S  S E  E.  E.  E.  E   
--------------------------|-----------------------------|
--------------------------|-----------------------------|
--8-8-8-7------6---5------|--10-10-10-9------8---7------|
--6-6-6-5------4---3------|---8--8--8-7------6---5------|
--------------------------|-----------------------------|
--------------------------|-----------------------------|


   S  S  S E  E.  E.  E.  E     W                   W                 
-----------------------------|-------------------|-------------------|
-----------------------------|-------------------|-------------------|
--10-10-10-9------8---7------|-------------------|-------------------|
---8--8--8-7------6---5------|-------------------|-------------------|
-----------------------------|-------------------|-------------------|
-----------------------------|-------------------|-------------------|


   T  T  T  T  T T T T T T T T T T T T    S S S E  E.  E.  E.  E   
--14-13-12-11-10-9-8-7-6-5-4-3-2-1-0---|--------------------------|
--14-13-12-11-10-9-8-7-6-5-4-3-2-1-0-4-|--------------------------|
-------------------------------------3-|--4-4-4-3------2----------|
---------------------------------------|--2-2-2-1------0---6------|
---------------------------------------|-------------------4------|
---------------------------------------|--------------------------|


  S S S E  E.  E.  E.  E     S S S E  E.  E.  E.  E   
--------------------------|--------------------------|
--------------------------|--------------------------|
--4-4-4-3------2----------|--6-6-6-5------4---3------|
--2-2-2-1------0---6------|--4-4-4-3------2---1------|
-------------------4------|--------------------------|
--------------------------|--------------------------|


  S S S E  E.  E.  E.  E     E.  E.  S  S  S  E  S    S S S E  E.  E.  E.  E   
--------------------------|------------------------|--------------------------|
--------------------------|------------------------|--------------------------|
--6-6-6-5------4---3------|--9---8---9-10-11-12----|--8-8-8-7------6---5------|
--4-4-4-3------2---1------|--9---8---9-10-11-12----|--6-6-6-5------4---3------|
--------------------------|------------------------|--------------------------|
--------------------------|------------------------|--------------------------|


  S S S E  E.  E.  E.  E      S  S  S E  E.  E.  E.  E   
--------------------------|-----------------------------|
--------------------------|-----------------------------|
--8-8-8-7------6---5------|--10-10-10-9------8---7------|
--6-6-6-5------4---3------|---8--8--8-7------6---5------|
--------------------------|-----------------------------|
--------------------------|-----------------------------|


   S  S  S E  E.  E.  E.  E                
-----------------------------|-----|-----||
-----------------------------|-----|-----||
--10-10-10-9------8---7------|-----|-----||
---8--8--8-7------6---5------|-----|-----||
-----------------------------|-----|-----||
-----------------------------|-----|-----||




Duration Legend
---------------
W - whole
H - half
Q - quarter
E - 8th
S - 16th
T - 32nd
X - 64th
. - note dotted
|-n-|  - n-tuplets


Tablature Legend
----------------
L - tied note
x - dead note
g - grace note
(n) - ghost note
> - accentuded note
NH - natural harmonic
AH - artificial harmonic
TH - tapped harmonic
SH - semi harmonic
PH - pitch harmonic
h - hammer on
p - pull off
b - bend
br - bendRelease
pb - preBend
pbr - preBendRelease
brb - bendReleaseBend
\n/ - tremolo bar dip
\n - tremolo bar dive
-/n - tremolo bar Release up
/n\ - tremolo bar inverted dip
/n - tremolo bar return
-\n - tremolo bar Release down
S - shift slide
s - legato slide
/ -  slide into from below or out of upwards
\ -  slide into from above or out of downwards
~ - vibrato
W - wide vibrato
tr - trill
TP - tremolo picking
T - tapping
S - slap
P - pop
< - fade in
^ - brush up
v - brush down
Tap to rate this tab
# A B C D E F G H I J K L M N O P Q R S T U V W X Y Z