Song name
# A B C D E F G H I J K L M N O P Q R S T U V W X Y Z

Misc Computer Games - Legend Of Zelda Links Awakening - Koholint Island tab

-------------------------------------------------------------------------------
           Legend Of Zelda: Links Awakening Koholint Island for Gameboy
-------------------------------------------------------------------------------
Game: Legend Of Zelda: Links Awakening
Song: Koholint Island
Platform: Gameboy

Tabbed by: deathx88
Email: deathx88@yahoo.com

Tuning: Standard


play 1 or 2 octaves down




Guitar 1


     Q     E.  T T  E.  T T  S  S  S  S    E   E   E   E.  T Q.     T  
E||-------14---L------------------------|-------------17---L----------|
B||----------------------------14-15-17-|-----17----------------------|
G||----------------16---L---16----------|---------14------------------|
D||-------------------------------------|-----------------------------|
A||-------------------------------------|-----------------------------|
E||-------------------------------------|-----------------------------|


  Q     E.  T T  E.  T T  S  S  S  S    E   E   E   E.  T Q.     T  
-------------------------------------|-------------14---L----------|
-------15---L---------------------14-|-----14----------------------|
----------------------------14-16----|-----------------------------|
----------------17---L---17----------|---------16------------------|
-------------------------------------|-----------------------------|
-------------------------------------|-----------------------------|


  Q     E   S  S  E  Q     S  S     E  S  S  E   S  E.  T S.  E.  T T  
-------14--15-17-19-------17-15-|--17----15-14------------------------|
--------------------------------|---------------17-15---L----15---L---|
--------------------------------|-------------------------------------|
--------------------------------|-------------------------------------|
--------------------------------|-------------------------------------|
--------------------------------|-------------------------------------|


                                                      /1\      
  Q     S  S  S  S Q.      S  S     E.   S Q     E.   S  Q     
----------18-20-22--------20-18-|--20---27------26---30-------|
-------18-----------------------|-----------------------------|
--------------------------------|-----------------------------|
--------------------------------|-----------------------------|
--------------------------------|-----------------------------|
--------------------------------|-----------------------------|


  Q     E.  T T  E.  T S.  S  S S     S  S  S  S  E   S  E.  T Q    S.  
--------------------------26------|--29--------------------------------|
-----------------------------24---|------------------------------------|
-------23---L---------------------|------------------------------------|
----------------21---L------------|---------------------19---L---------|
----------------------------------|-----------19-21--22----------------|
----------------------------------|-----21-22--------------------------|


  Q     E.  T T  E.  T T  S  S  S  S    Q     E   S  S H         
-------------------------------------|--------------------------|
-------------------------------------|--------------------------|
-------------------------------------|--------------------------|
-------------------------------------|-----------14-16----------|
-------17---L------------------14-16-|-------17-----------------|
----------------15---L---15-17-------|--------------------------|


   E.  T H        T  S  S  S  S     E.   S Q    S  S  S  S E  E   
--------------------------------|-------17--------29-22-29-------|
--------------------------15-17-|--------------------------------|
--16---L------------16-17-------|--14----------------------------|
--------------------------------|--------------------------------|
--------------------------------|--------------------------------|
--------------------------------|--------------------------------|


   E.  S  S  S  S  S Q.      S  S     E.   S Q     E.   S Q     
--30------------------------------|-------15-----------20------|
----------------------------------|---------------19-----------|
---------------17-19--------17-15-|--17------------------------|
------------20--------------------|----------------------------|
---------20-----------------------|----------------------------|
----------------------------------|----------------------------|




Guitar 2


     S S S S S S S S S S S S S S S S    S S S S S S S S S S S S S S S S  
E||--7-------------------------------|----------------------------------|
B||------0-0-0---0-0-0---0-0-0---0-0-|----------------------------------|
G||--0---0-0-0---0-0-0---0-0-0---0-0-|--2---2-2-2---2-2-2---2-2-2---2-2-|
D||----------------------------------|--4---4-4-4---4-4-4---4-4-4---4-4-|
A||----------------------------------|----------------------------------|
E||----------------------------------|----------------------------------|


  S S S S S S S S S S S S S S S S    S S S S S S S S S S S S S S S S  
----------------------------------|----------------------------------|
----------------------------------|----------------------------------|
--0---0-0-0---0-0-0---0-0-0---0-0-|----------------------------------|
--2---2-2-2---2-2-2---2-2-2---2-2-|--4---4-4-4---4-4-4---4-4-4---4-4-|
----------------------------------|--2---2-2-2---2-2-2---2-2-2---2-2-|
----------------------------------|----------------------------------|


  S S S S S S S S S S S S S S S S    S S S S S S S S S S S S S S S S  
----------------------------------|----------------------------------|
------0-0-0---0-0-0---0-0-0---0-0-|----------------------------------|
--0---0-0-0---0-0-0---0-0-0---0-0-|--2---2-2-2---2-2-2---2-2-2---2-2-|
----------------------------------|--4---4-4-4---4-4-4---4-4-4---4-4-|
----------------------------------|----------------------------------|
--7-------------------------------|----------------------------------|


  S S S S S S S S S S S S S S S S    S S S S S S S S S S S S S S S S  
----------------------------------|----------------------------------|
----------------------------------|----------------------------------|
--3---3-3-3---3-3-3---3-3-3---3-3-|--3---3-3-3---3-3-3---3-3-2---2-2-|
--3---3-3-3---3-3-3---3-3-3---3-3-|--2---2-2-2---2-2-1---1-1-1---1-1-|
----------------------------------|----------------------------------|
----------------------------------|----------------------------------|


  S S S S S S S S S S S S S S S S    S S S S S S S S S S S S S S S S  
--7-------------------------------|----------------------------------|
------0-0-0---0-0-0---0-0-0---0-0-|----------------------------------|
--0---0-0-0---0-0-0---0-0-0---0-0-|--2---2-2-2---2-2-2---2-2-2---2-2-|
----------------------------------|--4---4-4-4---4-4-4---4-4-4---4-4-|
----------------------------------|----------------------------------|
----------------------------------|----------------------------------|


  S S S S S S S S S S S S S S S S    S S S S S S S S S S S S S S S S  
----------------------------------|----------------------------------|
----------------------------------|----------------------------------|
--0---0-0-0---0-0-0---0-0-0---0-0-|----------------------------------|
--2---2-2-2---2-2-2---2-2-2---2-2-|--4---4-4-4---4-4-4---4-4-4---4-4-|
----------------------------------|--2---2-2-2---2-2-2---2-2-2---2-2-|
----------------------------------|----------------------------------|


  S S S S S S S S S S S S S S S S    S S S S S S S S S S S S S S S S  
----------------------------------|----------------------------------|
------0-0-0---0-0-0---0-0-0---0-0-|----------------------------------|
--0---0-0-0---0-0-0---0-0-0---0-0-|--2---2-2-2---2-2-2---2-2-2---2-2-|
----------------------------------|--4---4-4-4---4-4-4---4-4-4---4-4-|
--2-------------------------------|----------------------------------|
----------------------------------|----------------------------------|


  S S S S S S S S S S S S S S S S    S S S S S S S S S S S S S S S S  
----------------------------------|----------------------------------|
----------------------------------|----------------------------------|
--3---3-3-3---3-3-3---3-3-3---3-3-|--3---3-3-3---3-3-3---3-3-2---2-2-|
--3---3-3-3---3-3-3---3-3-3---3-3-|--2---2-2-2---2-2-2---2-2-1---1-1-|
----------------------------------|----------------------------------|
----------------------------------|----------------------------------|




Duration Legend
---------------
W - whole
H - half
Q - quarter
E - 8th
S - 16th
T - 32nd
X - 64th
. - note dotted
|-n-|  - n-tuplets


Tablature Legend
----------------
L - tied note
x - dead note
g - grace note
(n) - ghost note
> - accentuded note
NH - natural harmonic
AH - artificial harmonic
TH - tapped harmonic
SH - semi harmonic
PH - pitch harmonic
h - hammer on
p - pull off
b - bend
br - bendRelease
pb - preBend
pbr - preBendRelease
brb - bendReleaseBend
\n/ - tremolo bar dip
\n - tremolo bar dive
-/n - tremolo bar Release up
/n\ - tremolo bar inverted dip
/n - tremolo bar return
-\n - tremolo bar Release down
S - shift slide
s - legato slide
/ -  slide into from below or out of upwards
\ -  slide into from above or out of downwards
~ - vibrato
W - wide vibrato
tr - trill
TP - tremolo picking
T - tapping
S - slap
P - pop
< - fade in
^ - brush up
v - brush down
Tap to rate this tab
# A B C D E F G H I J K L M N O P Q R S T U V W X Y Z