Song name
# A B C D E F G H I J K L M N O P Q R S T U V W X Y Z

Misc Computer Games - Legend Of Zelda Links Awakening - Trendy Game tab

-------------------------------------------------------------------------------
           Legend Of Zelda: Links Awakening Trendy Game for Gameboy
-------------------------------------------------------------------------------
Game: Legend Of Zelda: Links Awakening
Song: Trendy Game
Platform: Gameboy

Tabbed by: deathx88
Email: deathx88@yahoo.com

Tuning: Standard




Guitar 1


     E  Q    E  E  E  E  E  E  E  E  E     E  Q    E  E  E  E  E  E  E  E  E   
E||-------------------------------------|-------------------------------------|
B||-------------------------------------|-------------------------------------|
G||-------------------------------------|-------------------------------------|
D||--2-------2--3-----2-----0-----------|--2-------2--3-----2-----0-----------|
A||--3-------3--4-----3-----1-----2-----|--3-------3--4-----3-----1-----2-----|
E||-------------------------------3-----|-------------------------------3-----|


  E  Q    E  E  E  E  E  E  E  E  E     E  Q    E  E  E  E  E  E  E  E  E   
-------------------------------------|-------------------------------------|
-------------------------------------|-------------------------------------|
-------------------------------------|-------------------------------------|
--2-------2--3-----2-----0-----------|--2-------2--3-----2-----0-----------|
--3-------3--4-----3-----1-----2-----|--3-------3--4-----3-----1-----2-----|
-------------------------------3-----|-------------------------------3-----|


  E  Q    E  E  E  E  E  E  E  E  E     E  Q    E  E  E  E  E  E  E  E  E   
-------------------------------------|-------------------------------------|
-------------------------------------|-------------------------------------|
-------------------------------------|-------------------------------------|
--2-------2--3-----2-----0-----------|--2-------2--3-----2-----0-----------|
--3-------3--4-----3-----1-----2-----|--3-------3--4-----3-----1-----2-----|
-------------------------------3-----|-------------------------------3-----|


  E  Q    E  E  E  E  E  E  E  E  E     E  Q    E  E  E  E  E  E  E  E  E   
-------------------------------------|-------------------------------------|
-------------------------------------|-------------------------------------|
--2-------2--3-----2-----0-----------|--2-------2--3-----2-----0-----------|
--3-------3--4-----3-----1-----2-----|--3-------3--4-----3-----1-----2-----|
-------------------------------3-----|-------------------------------3-----|
-------------------------------------|-------------------------------------|


  E  Q    E  E  E  E  E  E  E  E  E     E  Q    E  E  E  E  E  E  Q.      
-------------------------------------|-----------------------------------|
-------------------------------------|-----------------------------------|
--2-------2--3-----2-----0-----------|--2-------2--3-----2-----0---------|
--3-------3--4-----3-----1-----2-----|--3-------3--4-----3-----1---------|
-------------------------------3-----|-----------------------------------|
-------------------------------------|-----------------------------------|




Guitar 2

     W                H           W                Q    S S S S  
E||----------------------------|--------------------------3-4-5-|
B||----------------------------|--------------------------------|
G||----------------------------|--------------------------------|
D||----------------------------|--------------------------------|
A||----------------------------|--------------------------------|
E||----------------------------|--------------------------------|


  Q    E  E  Q    S. E  T S S S. T S. T S. T  
--6----------6----L-------5-6-5----3----1----|
----------5----------------------------------|
---------------------------------------------|
---------------------------------------------|
---------------------------------------------|
---------------------------------------------|


  Q    E  E  H        Q    S S S S  
--3----------3---------------3-4-5-|
----------1------------------------|
-----------------------------------|
-----------------------------------|
-----------------------------------|
-----------------------------------|


  Q    E  E  Q    S. E  T S S S. T S. T S. T  
--6----------6----L-------5-6-5----3----1----|
----------5----------------------------------|
---------------------------------------------|
---------------------------------------------|
---------------------------------------------|
---------------------------------------------|


  Q    E  E  H        Q    S S S  S  
--3----------3---------------8-9-10-|
----------1-------------------------|
------------------------------------|
------------------------------------|
------------------------------------|
------------------------------------|


   Q    E   E   Q    S. E  T  S  S  S.T S. T S. T  
--11-----------11----L-------10-11-10---8----6----|
-----------10-------------------------------------|
--------------------------------------------------|
--------------------------------------------------|
--------------------------------------------------|
--------------------------------------------------|


  Q    E  E  H        Q    S S S  S  
--8----------8---------------8-9-10-|
----------6-------------------------|
------------------------------------|
------------------------------------|
------------------------------------|
------------------------------------|


   Q    E   E   Q    S. E  T  S  S  S.T S. T S. T  
--11-----------11----L-------10-11-10---8----6----|
-----------10-------------------------------------|
--------------------------------------------------|
--------------------------------------------------|
--------------------------------------------------|
--------------------------------------------------|


  Q    E  E  H        H          
--8----------8-----------------|
----------6--------------------|
-------------------------------|
-------------------------------|
-------------------------------|
-------------------------------|







Duration Legend
---------------
W - whole
H - half
Q - quarter
E - 8th
S - 16th
T - 32nd
X - 64th
. - note dotted
|-n-|  - n-tuplets


Tablature Legend
----------------
L - tied note
x - dead note
g - grace note
(n) - ghost note
> - accentuded note
NH - natural harmonic
AH - artificial harmonic
TH - tapped harmonic
SH - semi harmonic
PH - pitch harmonic
h - hammer on
p - pull off
b - bend
br - bendRelease
pb - preBend
pbr - preBendRelease
brb - bendReleaseBend
\n/ - tremolo bar dip
\n - tremolo bar dive
-/n - tremolo bar Release up
/n\ - tremolo bar inverted dip
/n - tremolo bar return
-\n - tremolo bar Release down
S - shift slide
s - legato slide
/ -  slide into from below or out of upwards
\ -  slide into from above or out of downwards
~ - vibrato
W - wide vibrato
tr - trill
TP - tremolo picking
T - tapping
S - slap
P - pop
< - fade in
^ - brush up
v - brush down
Tap to rate this tab
 
# A B C D E F G H I J K L M N O P Q R S T U V W X Y Z