Song name
# A B C D E F G H I J K L M N O P Q R S T U V W X Y Z

Misc Computer Games - Legend Of Zelda Links Awakening - Mabe Village tab

-------------------------------------------------------------------------------
           Legend Of Zelda: Links Awakening Mabe Village for Gameboy
-------------------------------------------------------------------------------
Game: Legend Of Zelda: Links Awakening
Song: Mabe Village
Platform: Gameboy

Tabbed by: deathx88
Email: deathx88@yahoo.com

Tuning: Standard


play an octave down




Guitar 1


      E.  S  E.  S  Q    E   S  S     E   E   E   E   Q    E   S  S  
E||--22---------------------19-20-|--22--22----------17-------19-20-|
B||---------20-----22-------------|----------20--20-----------------|
G||-------------------------------|---------------------------------|
D||-------------------------------|---------------------------------|
A||-------------------------------|---------------------------------|
E||-------------------------------|---------------------------------|


   E   E   Q    E   E   E   E      E   S  S  Q    Q    S  S  S  S  
--19--22--29-------27--29--27--|--22--20-19-17-----------19-20-22-|
-------------------------------|----------------------------------|
-------------------------------|----------------------------------|
-------------------------------|----------------------------------|
-------------------------------|----------------------------------|
-------------------------------|----------------------------------|


   E.  S  E.  S  Q    E   S  S     E   E   E   E   Q    E   S  S  
--24------------------------24-|--22--22-------------------------|
-------------------------22----|---------------------------------|
---------24-----23-------------|----------23--23--24-------24-23-|
-------------------------------|---------------------------------|
-------------------------------|---------------------------------|
-------------------------------|---------------------------------|


   E   E   Q    E   E   E   E      E   E   E   E   E   E   E   E   
----------19-------------------|------22------22------22------22--|
------20-----------22--20------|----------------------------------|
--21-----------------------20--|--19------19------19------19------|
-------------------------------|----------------------------------|
-------------------------------|----------------------------------|
-------------------------------|----------------------------------|


       /2\     /2\     /2\     /2\                                 
   E   E   E   E   E   E   E   E    
--22--30--22--30--22--30--22--30--|
----------------------------------|
----------------------------------|
----------------------------------|
----------------------------------|
----------------------------------|




Guitar 2


     S S  S S S S  S S S S  S S  S S  S S  
E||------10-------10-------12--------12---|
B||--8--------8--------8------------------|
G||-----------------------------12--------|
D||---------------------------------------|
A||---------------------------------------|
E||---------------------------------------|


   S S  S S  S S  S S  S S  S S  S S  S S  
-------14--------14--------12--------12---|
------------------------------------------|
--12--------12--------12--------12--------|
------------------------------------------|
------------------------------------------|
------------------------------------------|


   S S  S S  S S  S S  S S  S S  S S  S S  
-------10--------10--------11--------11---|
------------------------------------------|
--12--------12--------12--------12--------|
------------------------------------------|
------------------------------------------|
------------------------------------------|


   S S  S S  S S  S S  S S  S S  S S  S S  
-------12--------12---14------------------|
--10--------10--------15------------------|
------------------------------------------|
---------------------------12---14---12---|
------------------------------------------|
------------------------------------------|


   S S  S S  S S  S S  S S  S S  S S  S S   S S  S S S S  S S S S S S S S S S 
-----------------------------------------|------------------------7-------7--|
---------------------------10--------10--|------10-------10------------------|
-------12--------12----------------------|--------------------9-------9------|
--10--------10--------10--------10-------|--9--------9-----------------------|
-----------------------------------------|-----------------------------------|
-----------------------------------------|-----------------------------------|


  S S S S S S S S S S S S S S S S    H        H         H        Q.     S S  
----------------------------------|------------------|----------------------|
------5-------5-------4-----------|------------------|----------------------|
--------------------------7---5---|--7--------5------|--4---------------7---|
--7-------7-------7---------------|------------------|-----------7----------|
----------------------------------|------------------|----------------------|
----------------------------------|------------------|----------------------|





Duration Legend
---------------
W - whole
H - half
Q - quarter
E - 8th
S - 16th
T - 32nd
X - 64th
. - note dotted
|-n-|  - n-tuplets


Tablature Legend
----------------
L - tied note
x - dead note
g - grace note
(n) - ghost note
> - accentuded note
NH - natural harmonic
AH - artificial harmonic
TH - tapped harmonic
SH - semi harmonic
PH - pitch harmonic
h - hammer on
p - pull off
b - bend
br - bendRelease
pb - preBend
pbr - preBendRelease
brb - bendReleaseBend
\n/ - tremolo bar dip
\n - tremolo bar dive
-/n - tremolo bar Release up
/n\ - tremolo bar inverted dip
/n - tremolo bar return
-\n - tremolo bar Release down
S - shift slide
s - legato slide
/ -  slide into from below or out of upwards
\ -  slide into from above or out of downwards
~ - vibrato
W - wide vibrato
tr - trill
TP - tremolo picking
T - tapping
S - slap
P - pop
< - fade in
^ - brush up
v - brush down
Tap to rate this tab
# A B C D E F G H I J K L M N O P Q R S T U V W X Y Z