Song name
# A B C D E F G H I J K L M N O P Q R S T U V W X Y Z

Misc Computer Games - Legend Of Zelda Links Awakening - Level 6 Face Shrine tab

-------------------------------------------------------------------------------
        Legend Of Zelda: Links Awakening Level 6 - Face Shrine for Gameboy
-------------------------------------------------------------------------------
Game: Legend Of Zelda: Links Awakening
Song: Level 6 - Face Shrine
Platform: Gameboy

Tabbed by: deathx88
Email: deathx88@yahoo.com

Tuning: Standard




Guitar 1


     E  E  E  E  E  E  E  E     E  E  E  E  E  E  E  E   
E||--------------------------|--------------------------|
B||--------------4-----------|--------------4-----------|
G||-----5--4--5-----5--4--5--|-----5--4--5-----5--4--5--|
D||--5-----------------------|--5-----------------------|
A||--------------------------|--------------------------|
E||--------------------------|--------------------------|


  E  E  E  E  E  E  E  E     E  E  E  E  E  E  E  E   
--------------------------|--------------------------|
--------------4-----------|--------------4-----------|
-----5--4--5-----5--4--5--|-----5--4--5-----5--4--5--|
--6-----------------------|--6-----------------------|
--------------------------|--------------------------|
--------------------------|--------------------------|


  E  E  E  E  E  E  E  E     E  E  E  E  E  E  E  E   
--------------------------|--------------------------|
--------------6-----------|--------------6-----------|
-----7--5--7-----7--5--7--|-----7--5--7-----7--5--7--|
--6-----------------------|--6-----------------------|
--------------------------|--------------------------|
--------------------------|--------------------------|


  E  E  E  E  E  E  E  E     E  E  E  E  E  E  E  E   
--------------------------|--------------------------|
--------------8-----------|--------------8-----------|
-----8--7--8-----8--7--8--|-----8--7--8-----8--7--8--|
--5-----------------------|--5-----------------------|
--------------------------|--------------------------|
--------------------------|--------------------------|


  E  E  E  E  E  E  E  E     E  E  E  E  E  E  E  E   
--------------------------|--------------------------|
--------------9-----------|--------------9-----------|
-----8--7--8-----8--7--8--|-----8--7--8-----8--7--8--|
--6-----------------------|--6-----------------------|
--------------------------|--------------------------|
--------------------------|--------------------------|


  E  E  E  E  E  E  E  E     E  E  E  E  E  E  E  E   
--------------------------|--------------------------|
--------------6-----------|--------------6-----------|
-----7--5--7-----7--5--7--|-----7--5--7-----7--5--7--|
--6-----------------------|--6-----------------------|
--------------------------|--------------------------|
--------------------------|--------------------------|


  E  E  E  E  E  E  E  E     E  E  E  E  E  E  E  E   
--------------------------|--------------------------|
--------------6-----------|--------------6-----------|
-----7--5--7-----7--5--7--|-----7--5--7-----7--5--7--|
--8-----------------------|--8-----------------------|
--------------------------|--------------------------|
--------------------------|--------------------------|


  E  E  E  E  E  E  E  E     E  E  E  E  E  E  E  E   
--------------------------|--------------------------|
--------------8-----------|--------------8-----------|
-----8--7--8-----8--7--8--|-----8--7--8-----8--7--8--|
--8-----------------------|--8-----------------------|
--------------------------|--------------------------|
--------------------------|--------------------------|


  E  E  E  E  E  E  E  E     E  E  E  E  E  E  E  E   
--------------------------|--------------------------|
--------------9-----------|--------------9-----------|
-----8--7--8-----8--7--8--|-----8--7--8-----8--7--8--|
--6-----------------------|--6-----------------------|
--------------------------|--------------------------|
--------------------------|--------------------------|


  E  E  E  E  E  E  E  E     E  E  E  E  E  E  E  E   
--------------------------|--------------------------|
--------------7-----------|--------------7-----------|
-----7--5--7-----7--5--7--|-----7--5--7-----7--5--7--|
--7-----------------------|--7-----------------------|
--------------------------|--------------------------|
--------------------------|--------------------------|


  E  E  E  E  E  E  E  E     E  E  E  E  E  E  E  E   
--------------3-----------|--------------3-----------|
-----3-----3-----3-----3--|-----3-----3-----3-----3--|
--------5-----------5-----|--------5-----------5-----|
--5-----------------------|--5-----------------------|
--------------------------|--------------------------|
--------------------------|--------------------------|


   E   E   E   E   E   E   E   E      E   E   E   E   E   E   E  E   
----------------------10--13--16--|--15--13-------------------------|
------------------12--------------|----------15--12-----------------|
----------10--13------------------|------------------12--10---------|
------12--------------------------|--------------------------12--9--|
--14------------------------------|---------------------------------|
----------------------------------|---------------------------------|




Guitar 2


     W                   W                   W                 
E||-------------------|-------------------|-------------------|
B||--4----------------|--L----------------|--4----------------|
G||--5----------------|--L----------------|--5----------------|
D||--5----------------|--L----------------|--6----------------|
A||--3----------------|--L----------------|--6----------------|
E||-------------------|-------------------|-------------------|


  W                   W                   W                   W                 
-------------------|--1----------------|--L----------------|--3----------------|
--L----------------|--3----------------|--L----------------|--4----------------|
--L----------------|--1----------------|--L----------------|--5----------------|
--L----------------|--3----------------|--L----------------|--5----------------|
--L----------------|-------------------|-------------------|-------------------|
-------------------|-------------------|-------------------|-------------------|


  W                   W                   W                   W                 
--L----------------|-------------------|-------------------|--1----------------|
--L----------------|--4----------------|--L----------------|--3----------------|
--L----------------|--5----------------|--L----------------|--5----------------|
--L----------------|--6----------------|--L----------------|--3----------------|
-------------------|--6----------------|--L----------------|-------------------|
-------------------|-------------------|-------------------|-------------------|


  W                   W                   W                   W                 
--L----------------|--1----------------|--L----------------|-------------------|
--L----------------|--3----------------|--L----------------|--8----------------|
--L----------------|--3----------------|--L----------------|--8----------------|
--L----------------|-------------------|-------------------|--8----------------|
-------------------|--1----------------|--L----------------|--6----------------|
-------------------|-------------------|-------------------|-------------------|


  W                   W                   W                   W                 
-------------------|--1----------------|--L----------------|--2----------------|
--L----------------|--4----------------|--L----------------|--3----------------|
--L----------------|--5----------------|--L----------------|--5----------------|
--L----------------|--6----------------|--L----------------|--4----------------|
--L----------------|-------------------|-------------------|-------------------|
-------------------|-------------------|-------------------|-------------------|


  W                   W                   W                 
--L----------------|--3----------------|--L----------------|
--L----------------|--3----------------|--L----------------|
--L----------------|--5----------------|--L----------------|
--L----------------|--5----------------|--L----------------|
-------------------|-------------------|-------------------|
-------------------|-------------------|-------------------|


   W                    W                               
--------------------|--------------------|
--------------------|--12----------------|
--13----------------|--13----------------|
--15----------------|--15----------------|
--17----------------|--17----------------|
--19----------------|--------------------|






Duration Legend
---------------
W - whole
H - half
Q - quarter
E - 8th
S - 16th
T - 32nd
X - 64th
. - note dotted
|-n-|  - n-tuplets


Tablature Legend
----------------
L - tied note
x - dead note
g - grace note
(n) - ghost note
> - accentuded note
NH - natural harmonic
AH - artificial harmonic
TH - tapped harmonic
SH - semi harmonic
PH - pitch harmonic
h - hammer on
p - pull off
b - bend
br - bendRelease
pb - preBend
pbr - preBendRelease
brb - bendReleaseBend
\n/ - tremolo bar dip
\n - tremolo bar dive
-/n - tremolo bar Release up
/n\ - tremolo bar inverted dip
/n - tremolo bar return
-\n - tremolo bar Release down
S - shift slide
s - legato slide
/ -  slide into from below or out of upwards
\ -  slide into from above or out of downwards
~ - vibrato
W - wide vibrato
tr - trill
TP - tremolo picking
T - tapping
S - slap
P - pop
< - fade in
^ - brush up
v - brush down
Tap to rate this tab
# A B C D E F G H I J K L M N O P Q R S T U V W X Y Z