Song name
# A B C D E F G H I J K L M N O P Q R S T U V W X Y Z

Misc Computer Games - Legend Of Zelda Links Awakening - Mini Boss Battle tab

-------------------------------------------------------------------------------
           Legend Of Zelda: Links Awakening Mini Boss Battle for Gameboy
-------------------------------------------------------------------------------
Game: Legend Of Zelda: Links Awakening
Song: Mini Boss Battle
Platform: Gameboy

Tabbed by: deathx88
Email: deathx88@yahoo.com

Tuning: Standard




Guitar


      |--3--|         |--3--|              
      S  S  S  S E.   S  S  S  S Q.     S  
E||--------13-18-----------13-17----------| x2
B||--15-16-----------15-16----------------|
G||---------------------------------------|
D||---------------------------------------|
A||---------------------------------------|
E||---------------------------------------|


   |--3--|         |--3--|                              
   S  S  S  S E.   S  S  S  S Q.     S  
-----------20--------------19----------| x2
-----17-18-----------17-18-------------|
--19--------------19-------------------|
---------------------------------------|
---------------------------------------|
---------------------------------------|


   |--3--|         |--3--|              
   S  S  S  S E.   S  S  S  S Q.     S   
-----------22--------------21----------| x2
--------20--------------20-------------|
--21-22-----------21-22----------------|
---------------------------------------|
---------------------------------------|
---------------------------------------|


   |--3--|         |--3--|                
   S  S  S  S E.   S  S  S  S Q.     S   
-----------20--------------19----------| x2
-----17-18-----------17-18-------------| 
--19--------------19-------------------|
---------------------------------------|
---------------------------------------|
---------------------------------------|




Bass


     S S S S S S S S S S S S S S S S    S S S S S S S S S S S S S S S S  
G||--5-----------5-----------5-------|--5-----------5-----------5-------|
D||----------------------------------|----------------------------------|
A||------3---3-------3---3-------3---|------3---3-------3---3-------3---|
E||----------------------------------|----------------------------------|


  S S S S S S S S S S S S S S S S    S S S S S S S S S S S S S S S S  
--7-----------7-----------7-------|--7-----------7-----------7-------|
----------------------------------|----------------------------------|
------5---5-------5---5-------5---|------5---5-------5---5-------5---|
----------------------------------|----------------------------------|


  S S S S S S S S S S S S S S S S    S S S S S S S S S S S S S S S S  
--9-----------9-----------9-------|--9-----------9-----------9-------|
----------------------------------|----------------------------------|
------7---7-------7---7-------7---|------7---7-------7---7-------7---|
----------------------------------|----------------------------------|


  S S S S S S S S S S S S S S S S    S S S S S S S S S S S S S S S S  
--7-----------7-----------7-------|--7-----------7-----------7-------|
----------------------------------|----------------------------------|
------5---5-------5---5-------5---|------5---5-------5---5-------5---|
----------------------------------|----------------------------------|




Duration Legend
---------------
W - whole
H - half
Q - quarter
E - 8th
S - 16th
T - 32nd
X - 64th
. - note dotted
|-n-|  - n-tuplets


Tablature Legend
----------------
L - tied note
x - dead note
g - grace note
(n) - ghost note
> - accentuded note
NH - natural harmonic
AH - artificial harmonic
TH - tapped harmonic
SH - semi harmonic
PH - pitch harmonic
h - hammer on
p - pull off
b - bend
br - bendRelease
pb - preBend
pbr - preBendRelease
brb - bendReleaseBend
\n/ - tremolo bar dip
\n - tremolo bar dive
-/n - tremolo bar Release up
/n\ - tremolo bar inverted dip
/n - tremolo bar return
-\n - tremolo bar Release down
S - shift slide
s - legato slide
/ -  slide into from below or out of upwards
\ -  slide into from above or out of downwards
~ - vibrato
W - wide vibrato
tr - trill
TP - tremolo picking
T - tapping
S - slap
P - pop
< - fade in
^ - brush up
v - brush down
Tap to rate this tab
# A B C D E F G H I J K L M N O P Q R S T U V W X Y Z