Song name
# A B C D E F G H I J K L M N O P Q R S T U V W X Y Z

Misc Computer Games - Legend Of Zelda Links Awakening - Moblin Hideout tab

-------------------------------------------------------------------------------
           Legend Of Zelda: Links Awakening Moblin Hideout for Gameboy
-------------------------------------------------------------------------------
Game: Legend Of Zelda: Links Awakening
Song: Moblin Hideout
Platform: Gameboy

Tabbed by: deathx88
Email: deathx88@yahoo.com

Tuning: Standard




Guitar 1


      S  S  S  S  S  S  S  S  S  S  S  S  S  S  S  S  
E||--------------------------------------------------|
B||--------------------------------------------------|
G||--16-17-16-15-14-13-14-15-16-17-16-15-14-13-14-15-|
D||--------------------------------------------------|
A||--------------------------------------------------|
E||--------------------------------------------------|


   S  S  S  S  S  S  S  S  S  S  S  S  S  S  S  S  
--------------------------------------------------|
--------------------------------------------------|
--16-17-16-15-14-13-14-15-16-17-16-15-14-13-14-15-|
--------------------------------------------------|
--------------------------------------------------|
--------------------------------------------------|


   Q    S. T  S  S  Q    S. T  S  S     Q    S. T  S  S  E   S.T  Q     
------------------------------------|-----------------------21---21----|
------------------------------------|-------------22-20----------------|
--16----L----14-16-17----L----16-17-|--18----L----------18-------------|
------------------------------------|----------------------------------|
------------------------------------|----------------------------------|
------------------------------------|----------------------------------|


  W                   W                    Q    S. T  S  S  Q    S. T  S  S  
-------------------|-------------------|------------------------------------|
-------------------|-------------------|------------------------------------|
-------------------|-------------------|--15----L----13-15-16----L----15-16-|
-------------------|-------------------|------------------------------------|
-------------------|-------------------|------------------------------------|
-------------------|-------------------|------------------------------------|


   Q    S. T  S  S  E   S.T  Q       W                   W                 
-----------------------20---20----|-------------------|-------------------|
-------------21-19----------------|-------------------|-------------------|
--17----L----------17-------------|-------------------|-------------------|
----------------------------------|-------------------|-------------------|
----------------------------------|-------------------|-------------------|
----------------------------------|-------------------|-------------------|




Guitar 2


      S  S  S  S  S  S  S  S  S  S  S  S  S  S  S  S  
E||--------------------------------------------------|
B||--------------------------------------------------|
G||--------------------------------------------------|
D||--------------------------------------------------|
A||--------------------------------------------------|
E||--16-17-16-15-14-13-14-15-16-17-16-15-14-13-14-15-|


   S  S  S  S  S  S  S  S  S  S  S  S  S  S  S  S  
--------------------------------------------------|
--------------------------------------------------|
--------------------------------------------------|
--------------------------------------------------|
--------------------------------------------------|
--16-17-16-15-14-13-14-15-16-17-16-15-14-13-14-15-|


  S. T S. T S. T S. T S. T S. T S. T S. T  
------------------------------------------| x4
------------------------------------------|
------------------------------------------|
------------------------------------------|
--4----6----6----4----6----6----4----6----|
------------------------------------------|


  S. T S. T S. T S. T S. T S. T S. T S. T  
------------------------------------------| x4
------------------------------------------|
------------------------------------------|
------------------------------------------|
--3----5----5----3----5----5----3----5----|
------------------------------------------|





Duration Legend
---------------
W - whole
H - half
Q - quarter
E - 8th
S - 16th
T - 32nd
X - 64th
. - note dotted
|-n-|  - n-tuplets


Tablature Legend
----------------
L - tied note
x - dead note
g - grace note
(n) - ghost note
> - accentuded note
NH - natural harmonic
AH - artificial harmonic
TH - tapped harmonic
SH - semi harmonic
PH - pitch harmonic
h - hammer on
p - pull off
b - bend
br - bendRelease
pb - preBend
pbr - preBendRelease
brb - bendReleaseBend
\n/ - tremolo bar dip
\n - tremolo bar dive
-/n - tremolo bar Release up
/n\ - tremolo bar inverted dip
/n - tremolo bar return
-\n - tremolo bar Release down
S - shift slide
s - legato slide
/ -  slide into from below or out of upwards
\ -  slide into from above or out of downwards
~ - vibrato
W - wide vibrato
tr - trill
TP - tremolo picking
T - tapping
S - slap
P - pop
< - fade in
^ - brush up
v - brush down
Tap to rate this tab
# A B C D E F G H I J K L M N O P Q R S T U V W X Y Z