Song name
# A B C D E F G H I J K L M N O P Q R S T U V W X Y Z

Misc Computer Games - Legend Of Zelda Links Awakening - Town Shop tab

-------------------------------------------------------------------------------
           Legend Of Zelda: Links Awakening Town Shop for Gameboy
-------------------------------------------------------------------------------
Game: Legend Of Zelda: Links Awakening
Song: Town Shop
Platform: Gameboy

Tabbed by: deathx88
Email: deathx88@yahoo.com

Tuning: Standard


play an octave down




Guitar 1


      Q    S. T  E   Q     Q        H         E   E   E   E   
E||--27----L----22--------------|------------23--20----------|
B||-----------------24----------|--21----------------21------|
G||-----------------------24----|------------------------20--|
D||-----------------------------|----------------------------|
A||-----------------------------|----------------------------|
E||-----------------------------|----------------------------|


   Q     E   E   Q     Q        Q     E   E   H         
--------22--19--------------|--------------------------|
----------------20----------|--18--------18------------|
--19------------------19----|--------20------19--------|
----------------------------|--------------------------|
----------------------------|--------------------------|
----------------------------|--------------------------|


   S.E  T  S.E  T  S.E  T  S.E  T     S.E  T  S.E  T  S.E  T  S.E  T  
------------------23------22------|--21------22------20------21------|
------------------27------26------|--24------25------23------24------|
--18------19----------------------|----------------------------------|
----------------------------------|----------------------------------|
----------------------------------|----------------------------------|
----------------------------------|----------------------------------|


   S.E  T  S.E  T  S.E  T  S.E  T     S.T  S.T  S.T  S.H        T  
--19------20------18------19------|-------------------------------|
--22------23------21------22------|--22---23---21---22------------|
----------------------------------|--24--------23-----------------|
----------------------------------|-------------------------------|
----------------------------------|-------------------------------|
----------------------------------|-------------------------------|




Guitar 2


     E  E  E  E  E  E  E  E     E  E  E  E  E  E  E  E   
E||--------------------------|--------------------------|
B||--------------------------|--------------------------|
G||--------------4-----------|--------------2-----------|
D||--------------5-----------|--------------1-----------|
A||--------5-----------5-----|--------3-----------3-----|
E||--3-----------------------|--------------------------|


  E  E  E  E  E  E  E  E     E  E  E  E  E  E  E  E                   
--------------------------|--------------------------|
--------------0-----------|--------------------------|
--------------0-----------|--------------2-----------|
--------0-----------0-----|--------------1-----------|
--------------------------|--------3-----------3-----|
--3-----------------------|--------------------------|





Duration Legend
---------------
W - whole
H - half
Q - quarter
E - 8th
S - 16th
T - 32nd
X - 64th
. - note dotted
|-n-|  - n-tuplets


Tablature Legend
----------------
L - tied note
x - dead note
g - grace note
(n) - ghost note
> - accentuded note
NH - natural harmonic
AH - artificial harmonic
TH - tapped harmonic
SH - semi harmonic
PH - pitch harmonic
h - hammer on
p - pull off
b - bend
br - bendRelease
pb - preBend
pbr - preBendRelease
brb - bendReleaseBend
\n/ - tremolo bar dip
\n - tremolo bar dive
-/n - tremolo bar Release up
/n\ - tremolo bar inverted dip
/n - tremolo bar return
-\n - tremolo bar Release down
S - shift slide
s - legato slide
/ -  slide into from below or out of upwards
\ -  slide into from above or out of downwards
~ - vibrato
W - wide vibrato
tr - trill
TP - tremolo picking
T - tapping
S - slap
P - pop
< - fade in
^ - brush up
v - brush down
Tap to rate this tab
# A B C D E F G H I J K L M N O P Q R S T U V W X Y Z