Song name
# A B C D E F G H I J K L M N O P Q R S T U V W X Y Z

Misc Computer Games - Legend Of Zelda Links Awakening - Mysterious Woods tab

-------------------------------------------------------------------------------
           Legend Of Zelda: Links Awakening Mysterious Woods for Gameboy
-------------------------------------------------------------------------------
Game: Legend Of Zelda: Links Awakening
Song: Mysterious Woods
Platform: Gameboy

Tabbed by: deathx88
Email: deathx88@yahoo.com

Tuning: Standard




Intro

     E.  S E.  S S. T E.  S E     S H        E.  S. T S. T  
E||----------------------------|---------------------------|
B||----------------------------|---------------------------|
G||----------------------------|---------------------------|
D||--------------3----4-----5--|--L------------------------|
A||--------5-------------------|---------------------------|
E||--3-------------------------|-----------------1----2----|


  E.  S S. T E.  S E.  S E     S H        E.  S. T S. T  
----------------------------|---------------------------|
----------------------------|---------------------------|
----------------------------|---------------------------|
-------------3-----4-----5--|--L------------------------|
--------5-------------------|---------------------------|
--3-------------------------|-----------------1----2----|




Guitar 1


  E.  S E.  S S. T E.  S E     S H        E.  S. T S. T  
----------------------------|---------------------------|
----------------------------|---------------------------|
----------------------------|---------------------------|
--------------3----4-----5--|--L------------------------|
--------5-------------------|---------------------------|
--3-------------------------|-----------------1----2----|


  E.  S S. T E.  S E.  S E     S H        E.  S. T S. T  
----------------------------|---------------------------|
----------------------------|---------------------------|
----------------------------|---------------------------|
-------------3-----4-----5--|--L------------------------|
--------5-------------------|---------------------------|
--3-------------------------|-----------------2----3----|


  E.  S E.  S S. T E.  S E     S H        E.  S. T S. T  
----------------------------|---------------------------|
----------------------------|---------------------------|
----------------------------|---------------------------|
--------------4----5-----6--|--L------------------------|
--------6-------------------|---------------------------|
--4-------------------------|-----------------2----3----|


  E.  S S. T E.  S E.  S E     S H        E.  S. T S. T  
----------------------------|---------------------------|
----------------------------|---------------------------|
----------------------------|---------------------------|
-------------4-----5-----6--|--L------------------------|
--------6-------------------|---------------------------|
--4-------------------------|-----------------1----2----|




Guitar 2
play an octave down

  W                    W                    W                 
--15----------------|--------------------|
--------------------|--15----------------|
--------------------|--------------------|
--------------------|--------------------|
--------------------|--------------------|
--------------------|--------------------|


  W                   H         S  S  S  S  S  S  S  S  
-------------------|-----------15-14-15-17-18-17-18-20-|
--L----------------|--L--------------------------------|
-------------------|-----------------------------------|
-------------------|-----------------------------------|
-------------------|-----------------------------------|
-------------------|-----------------------------------|


   Q.      Q.      Q        W                   H.            Q     
--22------23------25----|--27----------------|--L------------25----|
------------------------|--------------------|---------------------|
------------------------|--------------------|---------------------|
------------------------|--------------------|---------------------|
------------------------|--------------------|---------------------|
------------------------|--------------------|---------------------|


   Q.      Q.      Q        W                    W                 
--23------20------------|--------------------|--------------------|
------------------21----|--20----------------|--------------------|
------------------------|--------------------|--19----------------|
------------------------|--------------------|--------------------|
------------------------|--------------------|--------------------|
------------------------|--------------------|--------------------|


  W                   H         S  S  S  S  S  S  S  S  
-------------------|-----------15-14-15-17-18-17-18-20-|
-------------------|-----------------------------------|
--L----------------|--L--------------------------------|
-------------------|-----------------------------------|
-------------------|-----------------------------------|
-------------------|-----------------------------------|


   Q.      Q.      Q        W                   H.            Q     
--22------23------25----|--27----------------|--L------------25----|
------------------------|--------------------|---------------------|
------------------------|--------------------|---------------------|
------------------------|--------------------|---------------------|
------------------------|--------------------|---------------------|
------------------------|--------------------|---------------------|


   Q.      Q.      Q       W                 
--23------20------------|-------------------|
------------------21----|-------------------|
------------------------|-------------------|
------------------------|-------------------|
------------------------|-------------------|
------------------------|-------------------|





Duration Legend
---------------
W - whole
H - half
Q - quarter
E - 8th
S - 16th
T - 32nd
X - 64th
. - note dotted
|-n-|  - n-tuplets


Tablature Legend
----------------
L - tied note
x - dead note
g - grace note
(n) - ghost note
> - accentuded note
NH - natural harmonic
AH - artificial harmonic
TH - tapped harmonic
SH - semi harmonic
PH - pitch harmonic
h - hammer on
p - pull off
b - bend
br - bendRelease
pb - preBend
pbr - preBendRelease
brb - bendReleaseBend
\n/ - tremolo bar dip
\n - tremolo bar dive
-/n - tremolo bar Release up
/n\ - tremolo bar inverted dip
/n - tremolo bar return
-\n - tremolo bar Release down
S - shift slide
s - legato slide
/ -  slide into from below or out of upwards
\ -  slide into from above or out of downwards
~ - vibrato
W - wide vibrato
tr - trill
TP - tremolo picking
T - tapping
S - slap
P - pop
< - fade in
^ - brush up
v - brush down
Tap to rate this tab
# A B C D E F G H I J K L M N O P Q R S T U V W X Y Z