Song name
# A B C D E F G H I J K L M N O P Q R S T U V W X Y Z

Misc Computer Games - Legend Of Zelda Links Awakening - Rapids Ride tab

-------------------------------------------------------------------------------
           Legend Of Zelda: Links Awakening Rapids Ride for Gameboy
-------------------------------------------------------------------------------
Game: Legend Of Zelda: Links Awakening
Song: Rapids Ride
Platform: Gameboy

Tabbed by: deathx88
Email: deathx88@yahoo.com

Tuning: Standard


play 1 or 2 octaves down




Guitar 1


      S  S  S  S  S  S  S  S  S  S  S  S  S  S  S  S  
E||--20-19-20-19-20-19-20-19-20-19-20-19-20-19-20-19-|
B||--------------------------------------------------|
G||--------------------------------------------------|
D||--------------------------------------------------|
A||--------------------------------------------------|
E||--------------------------------------------------|


   S  S  S  S  S  S  S  S  S  S  S  S  S  S  S  S  
--20-19-20-19-20-19-20-19-20-19-20-19-20-19-20-19-|
--------------------------------------------------|
--------------------------------------------------|
--------------------------------------------------|
--------------------------------------------------|
--------------------------------------------------|


   Q    S. T  E   E   E   E   E      Q    S. T  E   Q.     S S  
---------------------17--19--22--|--21----L----22--23------L---|
--20----L--------20--------------|-----------------------------|
-------------19------------------|-----------------------------|
---------------------------------|-----------------------------|
---------------------------------|-----------------------------|
---------------------------------|-----------------------------|


                                                    /2\         
   Q    S. T  E   E   E   E   E      Q    S. T  E   Q.     S S  
-----------------------------22--|--21----L----22--30----------|
---------------------22--24------|-----------------------------|
--24----L--------24--------------|-----------------------------|
-------------24------------------|-----------------------------|
---------------------------------|-----------------------------|
---------------------------------|-----------------------------|


   Q    S. T  E   E   E   E   E      Q    S. T  E   Q.     S S  
--20----L--------20--22--24--27--|--26----L----27--28------L---|
-------------20------------------|-----------------------------|
---------------------------------|-----------------------------|
---------------------------------|-----------------------------|
---------------------------------|-----------------------------|
---------------------------------|-----------------------------|


                                                    /5\         
   Q    S. T  E   E   E   E   E      Q    S. T  E   Q.     S S  
--20----L--------20--22--24--27--|--26----L----27--30----------|
-------------20------------------|-----------------------------|
---------------------------------|-----------------------------|
---------------------------------|-----------------------------|
---------------------------------|-----------------------------|
---------------------------------|-----------------------------|




Guitar 2


     W                    S  S  S  S  S  S  S  S  S  S  S  S  S  S  S  S  
E||-------------------|--11-10-11-10-11-10-11-10-11-10-11-10-11-10-11-10-|
B||-------------------|--------------------------------------------------|
G||-------------------|--------------------------------------------------|
D||-------------------|--------------------------------------------------|
A||-------------------|--------------------------------------------------|
E||-------------------|--------------------------------------------------|


   S  S  S  S  S  S S S S S S  S  S  S  S  S  
--15-14-13-12-11-10-9-8-7-8-9-10-11-12-13-14-| x4
---------------------------------------------|
---------------------------------------------|
---------------------------------------------|
---------------------------------------------|
---------------------------------------------|


   S  S  S  S  S  S  S  S  S  S  S  S  S  S  S  S  
--20-19-18-17-16-15-14-13-12-13-14-15-16-17-18-19-| x4
--------------------------------------------------|
--------------------------------------------------|
--------------------------------------------------|
--------------------------------------------------|
--------------------------------------------------|






Duration Legend
---------------
W - whole
H - half
Q - quarter
E - 8th
S - 16th
T - 32nd
X - 64th
. - note dotted
|-n-|  - n-tuplets


Tablature Legend
----------------
L - tied note
x - dead note
g - grace note
(n) - ghost note
> - accentuded note
NH - natural harmonic
AH - artificial harmonic
TH - tapped harmonic
SH - semi harmonic
PH - pitch harmonic
h - hammer on
p - pull off
b - bend
br - bendRelease
pb - preBend
pbr - preBendRelease
brb - bendReleaseBend
\n/ - tremolo bar dip
\n - tremolo bar dive
-/n - tremolo bar Release up
/n\ - tremolo bar inverted dip
/n - tremolo bar return
-\n - tremolo bar Release down
S - shift slide
s - legato slide
/ -  slide into from below or out of upwards
\ -  slide into from above or out of downwards
~ - vibrato
W - wide vibrato
tr - trill
TP - tremolo picking
T - tapping
S - slap
P - pop
< - fade in
^ - brush up
v - brush down
Tap to rate this tab
# A B C D E F G H I J K L M N O P Q R S T U V W X Y Z