Song name
# A B C D E F G H I J K L M N O P Q R S T U V W X Y Z

Misc Computer Games - Dynasty Warriors 3 - Sacred Ground tab

Tuning: Standard

Main Part:
e|---------------------------------------------|
B|-/8----8h9-8~~~~------8----------------------|
G|---10------------8h10---10-8-7--8--5-/5------|
D|---------------------------------------------|
A|---------------------------------------------|
E|---------------------------------------------|

e|---------------------------------------------|
B|-/8----8h9-8~~~~------8--------------/6------|
G|---10------------8h10---10-8-7--8--5---------|
D|---------------------------------------------|
A|---------------------------------------------|
E|---------------------------------------------|

End Part:
e|---------------------------------------------|
B|-/8----8h9-8~~~~------8---------------8-9-11-|
G|---10------------8h10---10--8--7-8-10--------|
D|---------------------------------------------|
A|---------------------------------------------|
E|---------------------------------------------|

e|---------------------------------------------|
B|-13~~----------------------------------------|
G|---------------------------------------------|
D|---------------------------------------------|
A|---------------------------------------------|
E|---------------------------------------------|
Tap to rate this tab
 
# A B C D E F G H I J K L M N O P Q R S T U V W X Y Z