Song name
# A B C D E F G H I J K L M N O P Q R S T U V W X Y Z

Misc Computer Games - Pokemon - New Bark Town Theme tab

                                                Pokemon
                                          NEW BARK TOWN THEME	
                                        Gold  Silver  Crystal
                                       Music by:   Junichi Masuda


- Legend -

|  h = hammer on
|  p = pull off
|  b = full bend
|  * = repeat sign


Main Melody:


e||-----------------------||--------------------------|------------------------|
B||-----------------------||---7----10----8--7-----8--|--7---------------------|
G||-------------------7-9-||*-------------------9-----|---------7--------------|
D||-----------------------||*-------------------------|------------7---------7-|
A||-----------------------||--------------------------|-------------------10---|
E||-----------------------||--------------------------|------------------------|

 
|------------------------|-----------------------|----------------------------|
|------------------------|---------7-------------|--7----10----11--10--8--11--|
|-------7----9--7--6--7--|--9---------9------7-9-|----------------------------|
|--9---------------------|-----------------------|----------------------------|
|------------------------|-----------------------|----------------------------|
|------------------------|-----------------------|----------------------------|

 
|----------9--10----------|-------------7--------|-----------------------|
|--10-------------------7-|--8------10-----------|--10------8p7----------|
|---------------------9---|----------------------|--------------9--------|
|-------------------------|----------------------|-----------------------|
|-------------------------|----------------------|-----------------------|
|-------------------------|----------------------|-----------------------|

 
|--7-------------------|-------------------|--19--------------22----|
|---------10------8----|-------------------|----------22------------|
|----------------------|--9----------------|------------------------|
|----------------------|-------------------|------------------------|
|----------------------|-------------------|------------------------|
|----------------------|-------------------|------------------------|

 
|--21----------------|--7-------------------|-------------------|
|--------------------|---------10------8----|-------------------|
|--------------------|----------------------|--9----------------|
|--------------------|----------------------|-------------------|
|--------------------|----------------------|-------------------|
|--------------------|----------------------|-------------------|


                                                   Repeat infinitely    
|--19--------------22----|--22b-------------------------------------||
|----------22------------|------------------------------------------||
|------------------------|--------------------7-9------------------*||
|------------------------|-----------------------------------------*||
|------------------------|------------------------------------------||
|------------------------|------------------------------------------||
Tap to rate this tab
# A B C D E F G H I J K L M N O P Q R S T U V W X Y Z