Song name
# A B C D E F G H I J K L M N O P Q R S T U V W X Y Z

Misc Computer Games - Pokemon - Burned Tower Theme tab

                                                Pokemon
                                          BURNED TOWER THEME	
                                        Gold  Silver  Crystal
                                       


- Legend -

|  h = hammer on
|  p = pull off
|  b = full bend
|  * = repeat sign



E||-------------------------|--7----8--7--------------|------------------------|
B||-------------------10----|-------------10----------|------------------------|
G||--9----7--9--10----------|-------------------10----|--9----7--9--10----7----|
D||-------------------------|-------------------------|------------------------|
A||-------------------------|-------------------------|------------------------|
E||-------------------------|-------------------------|------------------------|


|-------------------||--------------------------|--7----8--7--------------|
|-------------------||--------------------10----|-------------10----------|
|--9----------------||*--9----7--9--10----------|-------------------10----|
|-------------------||*-------------------------|-------------------------|
|-------------------||--------------------------|-------------------------|
|-------------------||--------------------------|-------------------------|


|------------------------|-------------------|------------------------------|
|------------------------|-------------------|------------------------------|
|--9----7--9--10----7----|--9----------------|------------------------------|
|------------------------|-------------------|------------------------13----|
|------------------------|-------------------|-----12-----12-----12---------|
|------------------------|-------------------|------------------------------|


|------------------------------|------------------------------|
|------------------------------|------------------------------|
|------------------------------|------------------------------|
|-----12-----12-----12---11----|------------------------------|
|------------------------------|-----12-----12-----12---13----|
|------------------------------|------------------------------|


|--------------12--------------|---------------------------|
|-----------13-----------------|---------------------12----|
|------------------------------|--11----9--11--12----------|
|--14p12h14--------------------|---------------------------|
|------------------------10----|---------------------------|
|------------------------------|---------------------------|


                                                           Repeat infinitely   
|--9----10--9--------------|--------------------------|---------------------||
|--------------12----------|--------------------------|---------------------||
|--------------------12----|--11----9--11--12----9----|--11----------------*||
|--------------------------|--------------------------|--------------------*||
|--------------------------|--------------------------|---------------------||
|--------------------------|--------------------------|---------------------||
Tap to rate this tab
# A B C D E F G H I J K L M N O P Q R S T U V W X Y Z