Song name
# A B C D E F G H I J K L M N O P Q R S T U V W X Y Z

Misc Computer Games - Pokemon - Ruins Of Alph Theme tab

                                  RUINS OF ALPH THEME
                                        Pokemon
                                 Gold - Silver - Crystal


Gtr I (E A D G B E) - 'Main melody'
Gtr II (E A D G B E) - 'Harmony 1'
Gtr III (E A D G B E) - 'Harmony 2 '

    Q=120
   4/4
    Gtr I
     Q    Q   E  E  E  E    Q    Q   Q  Q
||-----------------------|-----------------|
||o-13-------14-16-13----|-13-------14-----|
||-------15-----------15-|------15---------|
||-----------------------|-----------------|
||o----------------------|-----------------|
||-----------------------|-----------------|
|
|   Gtr II
|    E E  Q   H             E E  Q   H
||-----------------------|-----------------|
||o-------5--------------|-------5---------|
||-----6-----------------|----6------------|
||---6-------------------|--6--------------|
||o----------------------|-----------------|
||-----------------------|-----------------|


   Q    Q   E  E  E  E    H       Q   Q
|----------13-12-------|---------------|
|------14--------13----|-13------14--13|
|-15----------------15-|---------------|
|----------------------|---------------|
|----------------------|---------------|
|----------------------|---------------|
|
|  E E  Q   H             E E Q   H
|----------------------|---------------|
|-------5--------------|------5--------|
|----6-----------------|----6----------|
|--6-------------------|--6------------|
|----------------------|---------------|
|----------------------|---------------|


   Q    Q   E  E  E  E    Q    Q   Q   Q
|----------------------|------------------|
|-13-------14-16-13----|-13-------14------|
|------15-----------15-|------15----------|
|----------------------|------------------|
|----------------------|------------------|
|----------------------|------------------|
|
|  E E  Q   E  E  Q       E E  Q   E E Q
|----------------------|------------------|
|-------5------5--6----|-------5-----5-6--|
|----6------6----------|----6------6------|
|--6-------------------|--6---------------|
|----------------------|------------------|
|----------------------|------------------|


   Q    Q   E  E  E  E    Q   Q   Q    Q
|----------13-12-------|--------------------|
|------14--------13----|-13------14---13----|
|-15----------------15-|--------------------|
|----------------------|--------------------|
|----------------------|--------------------|
|----------------------|--------------------|
|
|  E E  Q   E  E  Q       E E Q   E E  E E
|----------------------|--------------------|
|-------5------5--6----|------5-----5--6----|
|----6------6----------|----6-----6------5--|
|--6-------------------|--6-----------------|
|----------------------|--------------------|
|----------------------|--------------------|


   Q    Q    E  E  E  E    Q    Q    Q   Q
|-----------------------|--------------------|
|-13--------14-16-13----|-13--------14-------|
|------15------------15-|------15------------|
|-----------------------|--------------------|
|-----------------------|--------------------|
|-----------------------|--------------------|
|
|  E E  Q    E  E  E  E    E E  Q    E E E E
|-----------------------|--------------------|
|-------5-------5--6----|-------5------5-6---|
|----6-------6--------5-|----6-------6-----5-|
|--6--------------------|--6-----------------|
|-----------------------|--------------------|
|-----------------------|--------------------|
|
| Gtr III
|  E E  E E  E  E  Q       E E  E E  E E Q
|-----------------------|--------------------|
|-----------------------|--------------------|
|-----------------------|--------------------|
|--6--------------------|--6-----------------|
|----7----7-----7-------|----7----7----7-----|
|-----------------------|--------------------|


   Q    Q    E  E  E  E    H        Q    Q
|-----------13-12-------|---------------------|
|------14---------13----|-13-------14---13----|
|-15-----------------15-|---------------------|
|-----------------------|---------------------|
|-----------------------|---------------------|
|-----------------------|---------------------|
|
|  E E  Q    E  E  E  E    E E Q    E E  E E
|-----------------------|---------------------|
|-------5-------5--6----|------5------5--6----|
|----6-------6--------5-|----6------6------5--|
|--6--------------------|--6------------------|
|-----------------------|---------------------|
|-----------------------|---------------------|
|
|  E E  E E  E  E  Q       E E E E  E E  Q
|-----------------------|---------------------|
|-----------------------|---------------------|
|-----------------------|---------------------|
|--6--------------------|--6------------------|
|----7----7-----7-------|----7---7----7-------|
|-----------------------|---------------------|


   Q    Q    E  E  E  E    Q    Q    Q   Q
|-----------------------|--------------------|
|-14--------15-17-14----|-14--------15-------|
|------16------------16-|------16------------|
|-----------------------|--------------------|
|-----------------------|--------------------|
|-----------------------|--------------------|
|
|  E E  Q    E  E  E  E    E E  Q    E E E E
|-----------------------|--------------------|
|-------6-------6--7----|-------6------6-7---|
|----7-------7--------6-|----7-------7-----6-|
|--7--------------------|--7-----------------|
|-----------------------|--------------------|
|-----------------------|--------------------|
|
|  E E  E E  E  E  Q       E E  E E  E E Q
|-----------------------|--------------------|
|-----------------------|--------------------|
|-----------------------|--------------------|
|--7--------------------|--7-----------------|
|----8----8-----8-------|----8----8----8-----|
|-----------------------|--------------------|


   Q    Q    E  E  E  E    H        Q    Q
|-----------14-13-------|---------------------|
|------15---------14----|-14-------15---14----|
|-16-----------------16-|---------------------|
|-----------------------|---------------------|
|-----------------------|---------------------|
|-----------------------|---------------------|
|
|  E E  Q    E  E  E  E    E E Q    E E  E E
|-----------------------|---------------------|
|-------6-------6--7----|------6------6--7----|
|----7-------7--------6-|----7------7------6--|
|--7--------------------|--7------------------|
|-----------------------|---------------------|
|-----------------------|---------------------|
|
|  E E  E E  E  E  Q       E E E E  E E  Q
|-----------------------|---------------------|
|-----------------------|---------------------|
|-----------------------|---------------------|
|--7--------------------|--7------------------|
|----8----8-----8-------|----8---8----8-------|
|-----------------------|---------------------|


  Q   H.          Q    H.            Q    H.            Q    H.
|--------------|-----------------|------------------|----------------|
|----13--------|------14---------|-------15---------|-------14-------|
|--------------|-----------------|------------------|----------------|
|--------------|-----------------|------------------|----------------|
|--------------|-----------------|------------------|----------------|
|--------------|-----------------|------------------|----------------|
|
| Q   H     Q    +Q    H      Q     +Q    H      Q     +Q    H     Q
|--------------|-----------------|------------------|----------------|
|--------------|-----------------|------------------|----------------|
|--------------|-----------------|------------------|----------------|
|----10-----9--|-(9)---8---------|-------11-----10--|-(10)---9-----8-|
|--------------|-------------12--|-(12)-------------|----------------|
|--------------|-----------------|------------------|----------------|


   Q    H.           Q    H.           Q    H.           Q    H.
|------12----------|-----------------|-----18----------|-----17--------|
|------------------|-----16----------|-----------------|---------------|
|------------------|-----------------|-----------------|---------------|
|------------------|-----------------|-----------------|---------------|
|------------------|-----------------|-----------------|---------------|
|------------------|-----------------|-----------------|---------------|
|
| +Q    Q   Q  E E   E E  Q   Q  E E   E E  Q   Q  E E   E E  Q   Q  Q
|------------------|-----------------|-----------------|---------------|
|------------------|-----------------|-----------------|---------------|
|-------2---0--3-5-|-2-0--2---0--3-5-|-2-0--2---0--3-5-|-2-0--2---0--3-|
|-(8)--------------|-----------------|-----------------|---------------|
|------------------|-----------------|-----------------|---------------|
|------------------|-----------------|-----------------|---------------|


                                                           
|--------------|--------------|--------------|--------------||
|--------------|--------------|--------------|-------------o||
|--------------|--------------|--------------|--------------||
|--------------|--------------|--------------|--------------||
|--------------|--------------|--------------|-------------o||
|--------------|--------------|--------------|--------------||
|
| Q  E E Q  Q    Q  E E Q  Q    Q  E E Q  Q    Q  E E Q  Q 
|--------------|--------------|--------------|--------------||
|--------5-----|--------5-----|--------5-----|--------5----o||
|------6-------|------6-------|------6-------|------6-------||
|----6---------|----6---------|----6---------|----6---------||
|--------------|--------------|--------------|-------------o||
|--------------|--------------|--------------|--------------||


Duration Legend
---------------
W - whole; H - half; Q - quarter; E - 8th; S - 16th; T - 32nd; X - 64th; a - acciaccatura
+ - note tied to previous; . - note dotted; .. - note double dotted
Uncapitalized letters represent notes that are staccato (1/2 duration)
Irregular groupings are notated above the duration line
Duration letters will always appear directly above the note/fret number it represents the
duration for.  Duration letters with no fret number below them represent rests.  Multi-
bar rests are notated in the form Wxn, where n is the number of bars to rest for.  Low
melody durations appear below the staff

Tablature Legend
----------------
 h   - hammer-on
 p   - pull-off
 b   - bend
 pb  - pre-bend
 r   - bend release (if no number after the r, then release immediately)
 /\  - slide into or out of (from/to "nowhere")
 s   - legato slide
 S   - shift slide
  - natural harmonic
[n]  - artificial harmonic
n(n) - tapped harmonic
 ~   - vibrato
 tr  - trill
 T   - tap
 TP  - trem. picking
 PM  - palm muting
\n/  - tremolo bar dip; n = amount to dip
 \n  - tremolo bar down
 n/  - tremolo bar up
/n\  - tremolo bar inverted dip
 =   - hold bend; also acts as connecting device for hammers/pulls
 <>  - volume swell (louder/softer)
 x   - on rhythm slash represents muted slash
 o   - on rhythm slash represents single note slash

Misc Legend
-----------
 |  - bar
||  - double bar
||o - repeat start
o|| - repeat end
*|  - double bar (ending)
 :  - bar (freetime)
 $  - Segno
 &  - Coda
Tempo markers -  = BPM(8/16=s8/s16), where s8 = swing 8ths, s16 = swing 16ths
Tap to rate this tab
 
# A B C D E F G H I J K L M N O P Q R S T U V W X Y Z