Song name
# A B C D E F G H I J K L M N O P Q R S T U V W X Y Z

Misc Computer Games - Legend Of Zelda - Lost Woods tab

Hello world,
I found those tabs somewhere in the internet. I just modified them a
little bit, thus for example i don't need to push the sixth string on 
a 5th fret, if i the fifth string without pushing gives the same tone.
(And really i dont understand, why people like to play on high frets)

Nevermind, this tab just is a little tricky.
Try out to use in the beginning the ringfinger on sixthstring, the
middlefinger on the 4th string, and the indexfinger ont he 3rd string.
Then change the C-Chord.

Hope i could help, Greetings from Germany and
just send me your greetings to djgigi@web.de, would be happy about that.


  1 & 2 & 3 & 4 &  1 & 2 & 3 & 4 &  1 & 2 & 3 & 4 &  1 & 2 & 3 & 4 &  

||----------------|------0---------|----------------|----------------|
||----0-------0---|----0---3---0h1-|0---------------|----------------|
||--2-------2-----|--2-------------|--0-------------|--0-------------|
||3-------3-------|3---------------|----2---------0-|2---2-----------|
||----------------|----------------|3-----3-----3---|3-----3------3--|
||3-----3-3-----3-|3---------3-----|----------------|----------------|

 1 & 2 & 3 & 4 &  1 & 2 & 3 & 4 &  1 & 2 & 3 & 4 &  1 & 2 & 3 & 4 &  

|----------------|------0---------|0---------------|----------------|
|----0-------0---|----0---3---0h1-|--1-----------1-|----------------|
|--2-------2-----|--2-------------|----0-----------|0---0-----------|
|3-------3-------|3---------------|----------------|--2-------------|
|----------------|----------------|3-----3-----3---|3-----3---3-----|
|3-----3-3-----3-|3---------3-----|----------------|----------------|

 1 & 2 & 3 & 4 &  1 & 2 & 3 & 4 &  1 & 2 & 3 & 4 &  1 & 2 & 3 & 4 &  

|----------------|----------------|----------------|0-1-3-----------|
|------------0---|1p0-------------|--------0-1-3---|----------------|
|--------0-2-----|----------------|--0-2-----------|----------------|
|0-2-3-----------|----2-----------|3---------------|----------------|
|--------0-----0-|3-----0-----0---|--------0-----0-|3-----3---------|
|3-----3---------|----------------|0-----0---------|------------2---|

 1 & 2 & 3 & 4 &  1 & 2 & 3 & 4 &  1 & 2 & 3 & 4 &  1 & 2 & 3 & 4 &  

|----------------|----------------|----------------|--------0----1--|
|------------0---|1p0-------------|------------0---|1---3p0---1----3|
|--------0-2-----|----------------|----0---2-----0-|--2-------------|
|0-2-3-----------|----2-----------|3p0---2---3-----|----------------|
|--------0-----0-|3-----0-----0---|----------------|0---------------|
|3-----3---------|----------------|0-------------0-|----------------|

 1 & 2 & 3 & 4 &  1 & 2 & 3 & 4 &  

|0-0---0---0-0-0-|0-0-0-0-0-------|
|--0---0---0-0-0-|0-0-0-0-0-------|
|--1---1---1-1-1-|2-2-2-1-1-------|
|--2---2---2-2-2-|2-2-2-2-2-------|
|--2---2---2-2-2-|2-2-2-2-2-------|
|--2---2---2-2-2-|2-2-2-2-2-------|
Tap to rate this tab
 
# A B C D E F G H I J K L M N O P Q R S T U V W X Y Z