Song name
# A B C D E F G H I J K L M N O P Q R S T U V W X Y Z

Misc Computer Games - Resident Evil Code Veronica Theme tab

-------------------------------------------------------------------------------
                  RESIDENT EVIL: CODE VERONICA - Intro Theme
-------------------------------------------------------------------------------
Tabbed by: TheThirdDay
Email: TheThirdDaySH@gmail.com
-------------------------------------------------------------------------------

5/4 time (5 quarter notes a beat), 148 BPM

   E E E E E E E E E E   E E E E E E E E E E
e|-5-5-5-6-3-5-1-3-0-1-|-3-3-3-5-1-3-0-1---0-|
b|---------------------|-----------------3---|
g|---------------------|---------------------|
d|---------------------|---------------------|
a|---------------------|---------------------|
e|---------------------|---------------------| x2

   S S S S Q  H.   Q Q Q Q Q   E E E E H.   S S S S W
e|------------6--|---5---6-3-|-5-3--------|-3-5-6-8-10-|
b|-3-5-6-8-10----|-3---3-----|-----6-5----|------------|
g|---------------|-----------|------------|------------|
d|---------------|-----------|------------|------------|
a|---------------|-----------|------------|------------|
e|---------------|-----------|------------|------------|

-------------------------------------------------------------------------------

Just for fun, here's a heavier, chorded version from Drop-D.

   E SSE E E E E E E E   E SSE E E E E E E E
e|---------------------|---------------------|
b|---------------------|---------------------|
g|---------------------|---------------------|
d|-7-777-8-5-7-3-5-2-3-|-5-555-7-3-5-2-3-0-2-|
a|-7-777-8-5-7-3-5-2-3-|-5-555-7-3-5-2-3-0-2-|
d|-7-777-8-5-7-3-5-2-3-|-5-555-7-3-5-2-3-0-2-| x2

   Q Q H.   Q Q Q Q Q   E E E E H.   Q W
e|--------|-----------|------------|------|
b|--------|-----------|------------|------|
g|--------|-----------|------------|------|
d|-1/7-8--|-0-7-0-8-5-|-7-5-3-2----|-5/12-|
a|-1/7-8--|-0-7-0-8-5-|-7-5-3-2----|-5/12-|
d|-1/7-8--|-0-7-0-8-5-|-7-5-3-2----|-5/12-|

-------------------------------------------------------------------------------

Legend:
 W: Whole Note
 H: Half Note
 Q: Quarter Note
 E: Eighth Note
 S: Sixteenth Note
x.: Note is dotted (Equal to 1.5x the note's normal duration)
 /: Slide
Tap to rate this tab
 
# A B C D E F G H I J K L M N O P Q R S T U V W X Y Z