Song name
# A B C D E F G H I J K L M N O P Q R S T U V W X Y Z

Misc Computer Games - Pokemon - Mt Moon Square Theme tab

                                                Pokemon
                                          MT MOON SQUARE THEME	
                                        Gold  Silver  Crystal



       E   E   Q     E   E   Q        E   E   Q     E   E   Q     
E||---------------------17--22----|--------------------17--22----|
B||-------17--19----19------------|------17--19----19------------|
G||*--19--------------------------|--19--------------------------|
D||*------------------------------|------------------------------|
A||-------------------------------|------------------------------|
E||-------------------------------|------------------------------|


    E   E   Q     E   E   Q        E   E   Q     E   E   Q     
|--------------------19--24----|--------------------19--24----|
|------19--21----21------------|------19--21----21------------|
|--21--------------------------|--21--------------------------|
|------------------------------|------------------------------|
|------------------------------|------------------------------|
|------------------------------|------------------------------|


    E   E   Q     E   E   Q        E   E   Q     E   E   Q     
|------------------------21----|------------------------21----|
|----------17----17--20--------|----------17----17--20--------|
|--18--19----------------------|--18--19----------------------|
|------------------------------|------------------------------|
|------------------------------|------------------------------|
|------------------------------|------------------------------|


                                                           Repeat infinitely   
    E   E   Q     E   E   Q        E   E   Q     E   E   Q           
|--------------------17--22----|--------------------17--22----||
|------17--19----19------------|------17--19----19------------||
|--19--------------------------|--19-------------------------*||
|------------------------------|-----------------------------*||
|------------------------------|------------------------------||
|------------------------------|------------------------------||




Duration Legend
---------------
W - whole
H - half
Q - quarter
E - 8th
S - 16th
T - 32nd
X - 64th
. - note dotted
|-n-|  - n-tuplets
Tap to rate this tab
# A B C D E F G H I J K L M N O P Q R S T U V W X Y Z