Song name
# A B C D E F G H I J K L M N O P Q R S T U V W X Y Z

Misc Computer Games - Duke Nukem 3d Theme tab

Key:
m= Open Palm Mute
~= Vibrato
h=Hammer On
p=Pull Off
/=Slide

E------------------------------------------------|-------------------------|
B------------------------------------------------|-------------------------|
G------------------------------------------------|-------------------------|
D--2--2---2----2--2---2----2--2---2----3--3---3--|--3/---------------------|
A--2--2---2----2--2---2----2--2---2----3--3---3--|--3/---------------------|
E--0--0---0----0--0---0----0--0---0----1--1---1--|--1/---------------------|
          ^                                                           ^
Play Twice^                                             Ghost Slide up^

E----------------------------------------|----------------------------------|
B----------------------------------------|----------------------------------|
G------2----2--3----3--5-----------------|----------------------------------|
D--2---2----2--3----3--5-----------------|-3--3---3----3--3---3-------------|
A--2h3-0----0--1----1--3---2-3~~p0-------|-3--3---3----3--3---3-------------|
E--0h3--m-00-----00-----00---------------|-1--1---1----1--1---1-------------|
                                ^                              ^
Play Three-Four times as desired^                    Play Twice^

E--------------------------------------------------------------------------|
B--------------------------------------------------------------------------|
G--------------------------------------------------------------------------|
D-m-2-------2-------2---2---2-------2-------2---2--------------------------|
A-m-2-------2-------2---2---2-------2-------2---2--------------------------|
E-m-0--0-0--0--0-0--0-0-0-0-0--0-0--0--0-0--0-0-0-0------------------------|
                               ^
Play Two-Three Times As Desired^

E--------------------------------------------------------------------------|
B--------------------------------------------------------------------------|
G--------------------------------------------------------------------------|
D-/9--9-9-9-/10~~-7---7--7-7-7---------------------------------------------|
A------------------------------10-9-10~~7----------------------------------|
E--------------------------------------------------------------------------|

E--------------------------------------------------------------------------|
B--------------------------------------------------------------------------|
G--------------------------------------------------------------------------|
D--9--9-9--10--9--7-9~~-------------7--------------------------------------|
A------------------------10--7--10----9-9-9--9-9-9-10-10-10----------------|
E--------------------------------------------------------------------------|

E-------------7--------|---------7------------------------------------------|
B---------7h9--7h9h10--|------7h9-7h9p5-------------------------------------|
G----7h10--------------|-7h10-----------------------------------------------|
D----------------------|----------------------------------------------------|
A----------------------|----------------------------------------------------|
E----------------------|----------------------------------------------------|
                       ^
Can Play Second Part Of^
Line Two If Desired

E----------------------------------------|
B----------------------------------------|
G------2----2--3----3--5-----------------|
D--2---2----2--3----3--5-----------------|
A--2h3-0----0--1----1--3---2-3~~p0-------|
E--0h3--m-00-----00-----00---------------|
                                ^
Play Three-Five Times As Desired^

E----------------------------------------|
B----------------------------------------|
G------2----2--3----3--5-----------------|
D--2---2----2--3----3--5-----------------|
A--2h3-0----0--1----1--3-----------------|
E--0h3--m-00-----00----------------------|
Tap to rate this tab
# A B C D E F G H I J K L M N O P Q R S T U V W X Y Z