Song name
# A B C D E F G H I J K L M N O P Q R S T U V W X Y Z

Misc Computer Games - Castlevania 3 - Beginning tab

-------------------------------------------------------------------------------
			     Castlevania III - Beginning
-------------------------------------------------------------------------------

Tabbed by: xberserkx
Email: xberzerk311x@yahoo.com





E||-----------------------------------------------------------------------9-12--|
B||-----------15---13-----------13---12-----------12---11---11-10-8-11-10-------|
G||-----------14---12-----------12---12-----------12---12-----------------------|
D||--0-0-0-0-----------0-0-0-0-----------0-0-0-0--------------------------------|
A||-----------------------------------------------------------------------------|
E||-----------------------------------------------------------------------------|
 

|-----------------------------------------------------------------15-12----------
|-----------15---13-----------13---12-----------12---11-----14-17-------14-------
|-----------14---12-----------12---12-----------12---12--14----------------14-12-
|--0-0-0-0-----------0-0-0-0-----------0-0-0-0-----------------------------------
|--------------------------------------------------------------------------------
|--------------------------------------------------------------------------------


--------------------------------------------------------------------------------|
--------------------------------------------------------------------------------|
--------------------------------------------------------------------------------|
-14-11--------------------------------------------------------------------------|
-------12-10------13-12-10------------------------------------------------------|
-------------12-9----------13-12------------------------------------------------|


|------------------------------------------------------|
|-----------------------------10-9-------9--8-------8--|
|--10-9-7----------7-9-10-9-7--------9----------8------|
|---------7------7-------------------------------------|
|------------------------------------------------------|
|------------------------------------------------------|


|----------------------------------------10--9-10-12----------|
|-----------------------------10-9-------------------10~------|
|--10-9-7----------7-9-10-9-7--------9------------------------|
|---------7------7--------------------------------------------|
|-------------------------------------------------------------|
|-------------------------------------------------------------|


   
|------------------------------------------------------|
|-----------------------------10-9-------9--8-------8--|
|--10-9-7----------7-9-10-9-7--------9----------8------|
|---------7------7-------------------------------------|
|------------------------------------------------------|
|------------------------------------------------------|

 
|------------------------------------10---13-------12---17--|
|-----------------------------10-9------------14------------|
|--10-9-7----------7-9-10-9-7-------------------------------|
|---------7------7------------------------------------------|
|-----------------------------------------------------------|
|-----------------------------------------------------------|



|------------------------------------------------------------------------|
|------------------------------------------------------------------------|
|--10-10-10------------------10--12--10----------------------------------|
|-----------12--12-------12---------------12-----------12----15-12-------|
|------------------13--------------------------12---12----12-------12----|
|---------------------------------------------------------------------13-|


   
|---------------------------------------------------------------------|
|---------------------------------------------------------------------|
|--10-10-10--------------------10-----------------------------12--14--|
|-----------12--12------9-12-9----12-9-12-11---12---13---14-----------|
|------------------11-------------------------------------------------|
|---------------------------------------------------------------------|


      
|---------------------------------------------------|
|---------------------------------------------------|
|--10-----------------9-----------------------------|
|-------12----------------12--11---------12---------|
|------------12--11---------------------------------|
|---------------------------------------------------|


                              tr                        
         
|-------------------------------------------------------|
|-----------------------------10(11)--------10~---------|
|----------------10---9---------------------------------|
|------------12-----------12----------------------------|
|--10---13----------------------------------------------|
|-------------------------------------------------------|


   
|-----------10---------------10---------------10------------10------------12-|
|--------10---------------10---------------10------------10------------13----|
|-----10---------------10---------------10------------10------------12-------|
|--12---------------12---------------12------------12------------14----------|
|----------------------------------------------------------------------------|
|----------------------------------------------------------------------------|


  
|-----------13---------------13---------------13------------13---------15-16-|
|--------15---------------15---------------15------------15------17-18-------|
|-----14---------------14---------------14------------14---------------------|
|--15---------------15---------------15------------15------------------------|
|----------------------------------------------------------------------------|
|----------------------------------------------------------------------------|


   tr                                             
                 
|--17(18)--------L--------17--------L--------L---||
|------------------------------------------------||
|------------------------------------------------||
|------------------------------------------------||
|------------------------------------------------||
|------------------------------------------------||


tr - trill


Tap to rate this tab
# A B C D E F G H I J K L M N O P Q R S T U V W X Y Z