Song name
# A B C D E F G H I J K L M N O P Q R S T U V W X Y Z

Misc Computer Games - Mother 3 - Its A F-f-f-fire tab

-------------------------------------------------------------------------------
			    Track 18 - It's a F-f-f-fire!
-------------------------------------------------------------------------------
Tabbed by: george H.
This is the track played when Flint runs into the burning forest.

Tuning: Standard

Guitar 1 w/ heavy distortion. Play this continuously. Below is a variation.
e|---------------------------------------------------------------------------|
B|---------------------------------------------------------------------------|
G|-----------0p2h0--------------------------------------0p20h0---------------|
D|---2p0-----------2~\-------------------------2p0-------------2222----------|
A|-------2p0---------------------------------------2p0-----------------------|
E|-0-----------------------------------------0-------------------------------|

The fourth time around, Guitar 2 kicks in and plays this slowly.
e|---------------------------------------------------------------------------|
B|------------------------------1-3------------------------------------------|
G|-------0----0-2-4---0-2-4---0----------------------------------------------|
D|-0h2-4----2-------3--------------------------------------------------------|
A|---------------------------------------------------------------------------|
E|---------------------------------------------------------------------------|

Guitar 2
e|---------------------------------------------------------------------------|
B|---------------------------------------------------------------------------|
G|--7h9p7\5-4-0-4*-4h5h7p5p4--x2------4/5-4-2-0--4-2-------------------------|
D|----------------------------------------------4----------------------------|
A|---------------------------------------------------------------------------|
E|---------------------------------------------------------------------------|
* let it ring
| /  slide up
| \  slide down
| h  hammer-on
| p  pull-off
| ~  vibrato
| +  harmonic
| x  Mute note
===============================================================================
Tap to rate this tab
# A B C D E F G H I J K L M N O P Q R S T U V W X Y Z