Song name
# A B C D E F G H I J K L M N O P Q R S T U V W X Y Z

Misc Computer Games - Final Fantasy 8 - Eyes On Me tab

E -------------------------------------|
B -------------------------------------|
G --------------0----------------------|
D --------0--2-----2--0--2-----------0-|
A -----3--------------------3--0--3----|
E --3----------------------------------|

E -------------------------------------|
B -------------------------------------|
G --------------0--4--4--5--2--0--2--0-|
D --------0--2-------------------------|
A -----3-------------------------------|
E --3----------------------------------|

E -------------------------------------------------|
B -------------------------------------------------|
G --0--5--5--4--2--2--0-----0--2--2--0-------------|
D -----------------------2--------------3--3--0--2-|
A -------------------------------------------------|
E -------------------------------------------------|

E -------------------------------------------------|
B -------------------------------------------------|
G -------------------------------------------0-----|
D --2-2--0--2--3--2--0--0--------------0--2-----0--|
A -------------------------3---0-3--3--------------|
E -------------------------------------------------|

E -------------------------------------------------|
B -------------------------------------------------|
G --0--5--5--4--2--2--0-----0--2--2--0-------------|
D -----------------------2--------------3-----2--0-|
A -----------------------------------------3-------|
E -------------------------------------------------|

E -------------------------------------|
B -------------------------------------|
G -----------------0--0----------------|
D --------0--2--3--------3-----2--0----|
A -----3--------------------3--------3-|
E --3----------------------------------|

E -------------------------------------|
B -------------------------------------|
G --------0--4--2--2--2--4--5--2--0--0-|
D -----2-------------------------------|
A --3----------------------------------|
E -------------------------------------|

E -------------------------------------------------------------|
B -------------------------------------------------------------|
G -----------0--------------0--2--2--0--0-----------0--4--2--2-|
D --2--2--3-----3--3--3--3-----------------------2-------------|
A -----------------------------------------3--3----------------|
E -------------------------------------------------------------|

E -------------------------------------------------------------------|
B -------------------------------------------------------------------|
G -----2--4--5--4--0--4--2--0--0-----5-------------------------------|
D --3-----------------------------3-----3-----0--2--2--0--------0----|
A -----------------------------------------3--------------3--2-----3-|
E -------------------------------------------------------------------|
Tap to rate this tab
# A B C D E F G H I J K L M N O P Q R S T U V W X Y Z