Song name
# A B C D E F G H I J K L M N O P Q R S T U V W X Y Z

Misc Computer Games - Pokemon - Indigo Plateau Theme tab

                                                Pokemon
                                          INDIGO PLATEAU THEME	
                                        Gold  Silver  Crystal
                                       



      Q     E   E   E   E      E  E   E   E   Q        Q     E   E   E   E   
E||------------------------|-----------------------|------------------------|
B||------------------------|-----------------10----|------------------------|
G||------------------------|-----------------------|------------------------|
D||--12----12--12--12--12--|--12-----12--12--------|--12----12--12--12--12--|
A||------------------------|-----------------------|------------------------|
E||------------------------|-----------------------|------------------------|


   E  E   E   E   Q        Q     E   E   E   E      E  E   E   E   Q     
-----------------------|------------------------|-----------------------|
-----------------11----|------------------------|-----------------10----|
-----------------------|------------------------|-----------------------|
--12-----12--12--------|--12----12--12--12--12--|--12-----12--12--------|
-----------------------|------------------------|-----------------------|
-----------------------|------------------------|-----------------------|


   Q     E   E   E   E      E  E   E   E   Q        Q.      E   E   E   
------------------------|-----------------------|----------------------|
------------------------|-----------------------|--10--------------11--|
------------------------|-----------------------|--------------12------|
--12----12--12--12--12--|--12-----12--12--11----|----------12----------|
------------------------|-----------------------|----------------------|
------------------------|-----------------------|----------------------|


   H         Q        Q     E   E   E   E      E  E   E   E   Q     
------------------|------------------------|-----------------------|
--10--------10----|------------------------|-----------------11----|
------------------|------------------------|-----------------------|
------------------|--12----12--12--12--12--|--12-----12--12--------|
------------------|------------------------|-----------------------|
------------------|------------------------|-----------------------|


   Q.      E   Q        H         Q        Q     E   E   E   E   
--10------11--------|--10--------------|------------------------|
--------------13----|------------10----|------------------------|
--------------------|------------------|------------------------|
--------------------|------------------|--12----12--12--12--12--|
--------------------|------------------|------------------------|
--------------------|------------------|------------------------|


   E  E   E   E   Q        Q.      E   E   E      H         Q     
-----------------------|----------------------|------------------|
-----------------------|--13------11--10------|------------10----|
-----------------------|------------------12--|--11--------------|
--12-----12--12--11----|----------------------|------------------|
-----------------------|----------------------|------------------|
-----------------------|----------------------|------------------|


   Q     E   E   E   E      E  E   E   E   Q        Q.      E   Q     
------------------------|-----------------------|--10------11--13----|
------------------------|-----------------11----|--------------------|
------------------------|-----------------------|--------------------|
--12----12--12--12--12--|--12-----12--12--------|--------------------|
------------------------|-----------------------|--------------------|
------------------------|-----------------------|--------------------|


   H         Q        Q     E   E   E   E   
--14--------------|------------------------|
------------10----|------------------------|
------------------|------------------------|
------------------|--12----12--12--12--12--|
------------------|------------------------|
------------------|------------------------|


                                 Repeat infinitely   
   E  E   E   E   Q                
------------------------------------||
------------------------------------||
-----------------------------------*||
--12-----12--12--11----------------*||
------------------------------------||
------------------------------------||




Duration Legend
---------------
W - whole
H - half
Q - quarter
E - 8th
S - 16th
T - 32nd
X - 64th
. - note dotted
|-n-|  - n-tuplets
Tap to rate this tab
# A B C D E F G H I J K L M N O P Q R S T U V W X Y Z