Song name
# A B C D E F G H I J K L M N O P Q R S T U V W X Y Z

Misc Computer Games - Legend Of Zelda - Wind Waker - Earth Gods Lyric tab

The Legend of Zelda: The Wind Waker
Earth God's Lyric

    D         G         A          D

e---2--2-0----3---------0----------2-0-2-0----------------------|
B---3-3---3-2-3-0-2-3-0-2----3-0-2-3----3-----------------------|
G-2-2---------0--0-2----2-2-0------2------2---------------------|
D---0---------0---------2----------0----------------------------|
A-------------2---------0---------------------------------------|
E-------------3---------0---------------------------------------|

    D         G         A

e---2--2-0----3---------0--0-2-3-0------------------------------|
B---3-3---3-2-3-0-2-3-0-2-3-------2-3---------------------------|
G-2-2---------0--0-2----2---------------------------------------|
D---0---------0---------2---------------------------------------|
A-------------2---------0---------------------------------------|
E-------------3---------0---------------------------------------|

Tabbed out by Mael Glon
Tap to rate this tab
 
# A B C D E F G H I J K L M N O P Q R S T U V W X Y Z