Song name
# A B C D E F G H I J K L M N O P Q R S T U V W X Y Z

Misc Computer Games - Super Mario Brothers Theme tab

Super Mario Brothers
Tabbed by: Jp [somerperson]

Tuning: Standard[EADGBe]

e|-----------------------------|
B|-----------------------------|
G|--------------------12-------|
D|--14-14--14----14------------| 
A|------------15-----------10--|
E|-----------------------------|

e|-----------------------------------------------------------|
B|-----------------------------------------------------------|
G|---------------------------------12-14-10-12--9------------|
D|--10--------------------------14-----------------10-12--9--| x2
A|-----10-------12-14-13-12--10------------------------------|
E|--------12-------------------------------------------------|

e|--------------------------------------------------------------|
B|----------------------------------------------------13-13-13--|
G|--12-11-10----9----------------------12-11-10----9------------|
D|-----------12----------10----10-12------------13--------------|
A|-----------------10-12----12----------------------------------|
E|--------------------------------------------------------------|

e|--------------------------------------------------|
B|--------------------------------------------------|
G|--12-11-10-----9----------------------------------|
D|-----------12-----------10----10-12---14--12--10--|
A|------------------10-12----12---------------------|
E|--------------------------------------------------|

e|--------------------------------------------------|
B|--------------------------------------------------|
G|-----------------9-----------------------------9--|
D|--10-10-10-11h12---10-----------10-10-10-11h12----|
A|---------------------12-10------------------------|
E|--------------------------------------------------|

e|-----------------------------------------------------|
B|-----------------------------------------------------|
G|-----------------9----------------------------12-----|
D|--10-10-10-11h12---10---------14-14-14-----14--------|
A|----------------------12-10-------------15-------10--|
E|-----------------------------------------------------|

e|-------------------------------------------|
B|-------------------------------------------|
G|--9----------------------------------------|
D|-----10------------------------------------|
A|---------10--12--14--13--12--13--1210h12--|[Hammer on is slow]
E|-------------------------------------------|
Tap to rate this tab
 
# A B C D E F G H I J K L M N O P Q R S T U V W X Y Z