Song name
# A B C D E F G H I J K L M N O P Q R S T U V W X Y Z

Misc Computer Games - Pokemon - Pallet Town Theme tab

-----------------------------------------------------------------------------
			     Pallet Town Theme
-----------------------------------------------------------------------------

Tabbed by:XxGuitarZer0xX

Email:Spongebobs400s@hotmail.com

Tuning:Standard


This is 100% correct, tabbed by ear....Enjoy

I broke it up into parts because i hate long columned tabs



e|-------------15-12-14-12-10-----------------------------------------------|
B|-15-13-12----------------------------------12-13-------------12--13p12/10-|
G|----------14-------------------16-12-12-14----------11-12-14--------------|
D|--------------------------------------------------------------------------|
A|--------------------------------------------------------------------------|
E|--------------------------------------------------------------------------|

e|-------------15-14-14-15-12--10-10----8-7------10-8-7------|
B|-15-13-12-13------------------------------10-8--------10-8-|
G|-----------------------------------------------------------|
D|-----------------------------------------------------------|
A|-----------------------------------------------------------|
E|-----------------------------------------------------------|

e|------7-8--10--8-7---------7-8-8-10-8h10p7-|
B|-8-10-----------------8-10-----------------|
G|-------------------------------------------|
D|-------------------------------------------|
A|-------------------------------------------|
E|-------------------------------------------|

e|--------------------------------------------------|
B|-12---------------12-----------------12-12--10-10-|
G|----14-12-14---------14-12-----11-12--------------|
D|--------------14------------14--------------------|
A|--------------------------------------------------|
E|--------------------------------------------------|


e|-------------15-12-14-12-10-----------------------------------------------|
B|-15-13-12----------------------------------12-13-------------12--13p12/10-|
G|----------14-------------------16-12-12-14----------11-12-14--------------|
D|--------------------------------------------------------------------------|
A|--------------------------------------------------------------------------|
E|--------------------------------------------------------------------------|

e|-------------15-14-14-15-12--10-10----8-7------10-8-7------|
B|-15-13-12-13------------------------------10-8--------10-8-|
G|-----------------------------------------------------------|
D|-----------------------------------------------------------|
A|-----------------------------------------------------------|
E|-----------------------------------------------------------|

e|------7-8--10--8-7---------7-8-8-10-8h10p7-|
B|-8-10-----------------8-10-----------------|
G|-------------------------------------------|
D|-------------------------------------------|
A|-------------------------------------------|
E|-------------------------------------------|

e|--------------------------------------------------|
B|-12---------------12-----------------12-12--10-10-|
G|----14-12-14---------14-12-----11-12--------------|
D|--------------14------------14--------------------|
A|--------------------------------------------------|
E|--------------------------------------------------|


There you go


Thanks for the request
Tap to rate this tab
# A B C D E F G H I J K L M N O P Q R S T U V W X Y Z